Oops, an error
Loading. Please wait.

Whispers I Hear You Tab

version 4
version 4

Whole song

Interactive

12,791 views 9 this week
4 commentsread comments
1 2 3 4 5
excellent!
x 7
add to favorites
launch autoscroll
font size
0
reset
how to read this tab
guitar tuner
Tab Pro tools
  • play this tab
  • loop segment
  • change instrument
  • show fretboard
  • metronome
×
Best way to learn
"Whispers I Hear You"
Autoscroll
slow
fast
+/-
esc
set tempo
stop
Contributor
Whispers (I Hear You)
Tuning:  (DGCFAD)

This is 99% accurate. Don't know solo sorry.


Intro-Guitar 1
D|-------------------------------------------||
A|------------------------------------------o||
F|--9-9999-12-12121212--11-11111111-9-9999---||
C|--x-xxxx-x--x-x-x-x---x--x-x-x-x--x-xxxx---||
G|--7-7777-10-10101010--9--9-9-9-9--7-7777--o||
D|-------------------------------------------||
                                           
D|----------------------------------------------||
A|---------------------------------------------o||
F|--9-9999-9-9999-11/-12-12121212-11-11111111---||
C|--x-xxxx-x-xxxx-x---x--x-x-x-x--x--x-x-x-x----||
G|--7-7777-7-7777-9-/-10-10101010-9--9-9-9-9---o||
D|----------------------------------------------||
        
                                                
Intro- Guitar 2                                                         
D|--3-3333--||
A|--3-3333--||
F|--5-5555--|| 
C|--5-5555--|| [x16]
G|--3-3333--||
D|--3-3333--||


Main Riff/Verse
D|-------------------------------------------------------------------------------||
A|------------------------------------------------------------------------------o||
F|-------------------------------------------------------------------------------||
C|-------------------------------------------------------------------------------||
G|----7-9-10-9-7----12-12-10----10-10-9-----7-9-10-9-7--12-12-10----10-10-9--7--o||
D|--00-0-0--0-0---00----------00----------00-0-0--0-0-----------12----------8----||
    .. . .  . .   ..          ..          .. . .  . .

D|-------------------------------------------------------------------||
A|------------------------------------------------------------------o||
F|-------------------------------------------------------------------||
C|-------------------------------------------------------------------||
G|----7-9-10-9-7---------------7-9-10-9-7---12-12-10----10-10-9--7--o||
D|--00-0-0--0-0---000--000---00-0-0--0-0------------12----------8----||
    .. . .  . .   ...  ...   .. . .  . .   


Chorus-Guitar 1
D|-------------------------------------------||
A|------------------------------------------o||
F|--9-9999-12-12121212--11-11111111-9-9999---||
C|--x-xxxx-x--x-x-x-x---x--x-x-x-x--x-xxxx---||
G|--7-7777-10-10101010--9--9-9-9-9--7-7777--o||
D|-------------------------------------------||
                                           
D|----------------------------------------------||
A|---------------------------------------------o||
F|--9-9999-9-9999-11/-12-12121212-11-11111111---||
C|--x-xxxx-x-xxxx-x---x--x-x-x-x--x--x-x-x-x----||
G|--7-7777-7-7777-9-/-10-10101010-9--9-9-9-9---o||
D|----------------------------------------------||


Chorus-Guitar 2
D|-------------------------------||
A|-------------------------------||
F|-------------------------------||
C|--5-5555-5-5555----------------|| [x4]
G|--3-3333-3-3333-2-2222-2-2222--||
D|----------------0-0000-0-0000--||
   

Main Riff/Verse                                                              
D|-----------------------------------------||
A|-----------------------------------------||
F|-----------------------------------------||
C|-----------------------------------------||
G|----7-9-10-9-7---------------7-9-10-9-7--||
D|--00-0-0--0-0---000--000---00-0-0--0-0---||
    .. . .  . .   ...  ...   .. . .  . .   

D|--------------------------||
A|--------------------------||
F|--------------------------||
C|--------------------------||
G|--12-12-10----10-10-9--7--||
D|----------12----------8---||

D|-----------------------------------------||
A|-----------------------------------------||
F|-----------------------------------------||
C|-----------------------------------------||
G|----7-9-10-9-7---------------7-9-10-9-7--||
D|--00-0-0--0-0---000--000---00-0-0--0-0---||
    .. . .  . .   ...  ...   .. . .  . .   

D|----------------||
A|----------------||
F|----------------||
C|--------------P-||
G|--12-12-10---12-||
D|----------12----||

D|-----------------------------------------------------------------------------||
A|-----------------------------------------------------------------------------||
F|-----------------------------------------------------------------------------||
C|-----------------------------------------------------------------------------||
G|----7-9-10-9-7----12-12-10----10-10-9-----7-9-10-9-7--12-12-10----10-10-9--7-||
D|--00-0-0--0-0---00----------00----------00-0-0--0-0-----------12----------8--||
    .. . .  . .   ..          ..          .. . .  . .

D|---------------------------------------------------------------------||
A|---------------------------------------------------------------------||
F|---------------------------------------------------------------------||
C|------------------------------------------------------------------//-||
G|----7-9-10-9-7----12-12-10----10-10-9-----7-9-10-9-7--12-12-10----//-||
D|--00-0-0--0-0---00----------00----------00-0-0--0-0-----------12--//-||
    .. . .  . .   ..          ..          .. . .  . .


Chorus-Guitar 1
D|-------------------------------------------||
A|------------------------------------------o||
F|--9-9999-12-12121212--11-11111111-9-9999---||
C|--x-xxxx-x--x-x-x-x---x--x-x-x-x--x-xxxx---||
G|--7-7777-10-10101010--9--9-9-9-9--7-7777--o||
D|-------------------------------------------||
                                           
D|----------------------------------------------||
A|---------------------------------------------o||
F|--9-9999-9-9999-11/-12-12121212-11-11111111---||
C|--x-xxxx-x-xxxx-x---x--x-x-x-x--x--x-x-x-x----||
G|--7-7777-7-7777-9-/-10-10101010-9--9-9-9-9---o||
D|----------------------------------------------||

Chorus-Guitar 2
D|-------------------------------||
A|-------------------------------||
F|-------------------------------||
C|--5-5555-5-5555----------------|| [x4]
G|--3-3333-3-3333-2-2222-2-2222--||
D|----------------0-0000-0-0000--||


Breakdown
D|------------------------------------||
A|-----------------------------------o||
F|------------------------------------||
C|--5-555/----------5-555/------------||
G|--3-333/5-222-222-3-333/5---10-9-7-o||
D|----------000-000---------00—0--0---||
      ...   ... ... . ...   .. .  .


Bridge/Solo Background
D|----------------------------------------------------------------||
A|----------------------------------------------------------------||
F|----------------------------------------------------------------||
C|--5---5-5-5/---------------------5---5-5-5/---------------------|| [x5]
G|--3---3-3-3/555--10-9-7-10-9-----3---3-3-3/555--10-9-7-12-10-9--||
D|---000-0-0---------0-0-0--0-0-10--000-0-0---------0-0-0--0--0-0-||
     ... . .         . . .  . .  .  ... . .         . . .  .  . .


Breakdown
D|----------------------||
A|----------------------||
F|----------------------||
C|--5-555/--------------|| [x3]
G|--3-333/5-22222-22222-||
D|----------00000-00000-||
      ...   ..... .....

D|---------------------------||
A|---------------------------||
F|---------------------------||
C|--5-555/-------------------||
G|--3-333/5-14-12-10-12-10-9-||
D|------------0--0--0--0--0--||
      ...     .  .  .  .  . .


Main Riff/Verse
D|-----------------------------------------------------------------------------||
A|-----------------------------------------------------------------------------||
F|-----------------------------------------------------------------------------||
C|-----------------------------------------------------------------------------||
G|----7-9-10-9-7----12-12-10----10-10-9-----7-9-10-9-7--12-12-10----10-10-9--7-||
D|--00-0-0--0-0---00----------00----------00-0-0--0-0-----------12----------8--||
    .. . .  . .   ..          ..          .. . .  . .

D|--------------------------------------------------------------------||
A|-----------------------------------------------------------------P--||
F|----------------------------------------------------------------12--||
C|--------------------------------------------------------------------||
G|----7-9-10-9-7----12-12-10----10-10-9-----7-9-10-9-7--12-12-10------||
D|--00-0-0--0-0---00----------00----------00-0-0--0-0-----------12----||
    .. . .  . .   ..          ..          .. . .  . .

D|-----------------------------------------------------------------------------||
A|-----------------------------------------------------------------------------||
F|-----------------------------------------------------------------------------||
C|-----------------------------------------------------------------------------||
G|----7-9-10-9-7----12-12-10----10-10-9-----7-9-10-9-7--12-12-10----10-10-9--7-||
D|--00-0-0--0-0---00----------00----------00-0-0--0-0-----------12----------8--||
    .. . .  . .   ..          ..          .. . .  . .

D|--------------------------------------------------------------------||
A|--------------------------------------------------------------------||
F|--------------------------------------------------------------------||
C|--------------------------------------------------------------------||
G|----7-9-10-9-7----12-12-10----10-10-9-----7-9-10-9-7--12-12-10------||
D|--00-0-0--0-0---00----------00----------00-0-0--0-0-----------12/5--||
    .. . .  . .   ..          ..          .. . .  . .


Chorus-Guitar 1
D|-------------------------------------------||
A|------------------------------------------o||
F|--9-9999-12-12121212--11-11111111-9-9999---||
C|--x-xxxx-x--x-x-x-x---x--x-x-x-x--x-xxxx---||
G|--7-7777-10-10101010--9--9-9-9-9--7-7777--o||
D|-------------------------------------------||
                                           
D|----------------------------------------------||
A|---------------------------------------------o||
F|--9-9999-9-9999-11/-12-12121212-11-11111111---||
C|--x-xxxx-x-xxxx-x---x--x-x-x-x--x--x-x-x-x----||
G|--7-7777-7-7777-9-/-10-10101010-9--9-9-9-9---o||
D|----------------------------------------------||

Chorus-Guitar 2
D|-------------------------------||
A|-------------------------------||
F|-------------------------------||
C|--5-5555-5-5555----------------|| [x4]
G|--3-3333-3-3333-2-2222-2-2222--||
D|----------------0-0000-0-0000--||


Outro
D|------||
A|------||
F|------||
C|--2~--||
G|--2~--||
D|--0~--||


Key:

.   (palm mute)
P   (pinch harmonic)
/   (slide)
//  (pick slide)
 ||
o|| 
 ||
 || (repeat)
o||
 ||
comments
print report bad tab
4 comments total. Showing first comments.
0 reply
venomouskiss320 wrote on April 18 2009, 05:30 pm

not 99% accurate, there are chords involved, and there is already a close enough tab to it, including part of the solo... kind of a waste of space my friend

0 reply
andy6six6 wrote on April 18 2009, 07:14 pm

yeah never got the chords too lazy

but its in the right key
and rhythm atleast
unlike the other douches

0 reply
andy6six6 wrote on April 19 2009, 02:27 am

just so we're all aware, this is MY version of the song. i used my tascam guitar trainer for about an hour and came out with this. its not 100% on but i promise it'll sound good. u just gotta listen here and there, be a real musician ha

I want to post or [tab]
guest
You may want to rate the tab now too:
select rating
Please do not post tabs as comments. Select "correction" instead!