Oops, an error
Loading. Please wait.

Whispers I Hear You Tab

version 5
version 5

Whole song

Interactive

1,699 views 3 this week
no commentswrite comment
1 2 3 4 5
2 more votes to show rating
add to favorites
launch autoscroll
font size
0
reset
how to read this tab
guitar tuner
Autoscroll
slow
fast
+/-
esc
set tempo
stop
Help us to improve Ultimate-Guitar.com Take our survey!
×
Author
Theyre are no good tabs for this whatsoever. So Im currently working on this one. All 
got now is the intro, but I will update this in time and give u the rest of the song i 
:)

I hope You find this as enjoyable to play as I do
any Questions Comments or Concerns?
Email me at kikflipman@yahoo.com

you'll have to listen to the strumming pattern closely though


intro acoustic riff

Part A

e|---0----0-0-0-0-0-------0-----0--0--0--0--0----0----0--0--0--0--0--------|
B|---0----0-0-0-0-0-------0-----0--0--0--0--0----0----0--0--0--0--0--------|
G|---7----7-7-7-7-7----/-12----12-12-12-12-12---11---11-11-11-11-11--------|
D|---5----5-5-5-5-5-------x-----x--x--x--x--x---x----x--x--x--x--x---------|
A|---3----3-3-3-3-3----/-10----10-10-10-10-10---9----9--9--9--9--9---------|
E|-------------------------------------------------------------------------|

e|--0----0-0-0-0-0---------------------|
B|--0----0-0-0-0-0---------------------|
G|--9----9-9-9-9-9---------------------|   play 2x
D|--x----x-x-x-x-x---------------------|
A|--7----7-7-7-7-7---------------------|
E|-------------------------------------|

Part B

e|---0----0-0-0-0-0----0----0-0-0-0-0-----0--0------0--0--0--0--0----------|
B|---0----0-0-0-0-0----0----0-0-0-0-0-----0--0------0--0--0--0--0----------|
G|---7----7-7-7-7-7----7----7-7-7-7-7----11/12-----12-12-12-12-12----------|
D|---5----5-5-5-5-5----5----5-5-5-5-5-----x--x------x--x--x--x--x----------|
A|---3----3-3-3-3-3----3----3-3-3-3-3-----9/10-----10-10-10-10-10----------|
E|-------------------------------------------------------------------------|

e|---0-----0--0--0--0--0-------------------|
B|---0-----0--0--0--0--0-------------------|
G|--11----11-11-11-11-11-------------------|
D|---x-----x--x--x--x--x-------------------|   play 2x
A|---9-----9--9--9--9--9-------------------|
E|-----------------------------------------|

| /  slide up
| \  slide down

Transcribed by Chris Lieb
For the purpose only to understand what they play.
Do not use for other reasons.
or steal my tab.
Suggest correction
Give kudos to tab author, rate the tab!
1 2 3 4 5
comments
print report bad tab
guest
You may want to rate the tab now too:
select rating
Wanna post a correction for this tab? Suggest correction