Oops, an error
Loading. Please wait.

Call Me Star Tab

82 views 30 this week
no commentswrite comment
1 2 3 4 5
3 more votes to show rating
add to favorites
launch autoscroll
font size
0
reset
how to read this tab
guitar tuner
Autoscroll
slow
fast
+/-
esc
set tempo
stop
Help us to improve Ultimate-Guitar.com Take our survey!
×
Author
All Them Witches 
Call Me Star Intro

First a couple notes, first the tuning Is: D G C G A e, as explained in the All Them Witches Rig Rundown on 
youtube. Second, this is just the intro, I haven't figured out the Chorus part yet, so if you know how to 
play it post it in the comments and I'll add it to this tab. Also, This tab requires finger picking.    

[Intro]
   D
e|--------------------|    
A|----------0-0---0---| X3 
G|--------------------|
C|--------------2---2-|
G|-----0h2------------|
D|-0------------------| 

   D                  F          D
e|--------------------------------------------------|
A|----------0-0---0-----------0----------0-0---0----| 
G|--------------------------------------------------|
C|--------------2---2------------------------2---2--|
G|-----0h2---------------0h2--------0h2-------------|
D|-0------------------3----------0------------------|
 
   D
e|--------------------|    
A|----------0-0---0---| X4  
G|--------------------|
C|--------------2---2-|
G|-----0h2------------|
D|-0------------------| 

   F
e|--------------------|    
A|----------0-0---0---| X2 
G|--------------------|
C|--------------2---2-|
G|-----0h2------------|
D|-3------------------| 

  D
e|--------------------|    
A|----------0-0---0---| 
G|--------------------|
C|--------------2---2-|
G|-----0h2------------|
D|-0------------------|

************************************

| h  Hammer-on

************************************
Suggest correction
Give kudos to tab author, rate the tab!
1 2 3 4 5
comments
print report bad tab
guest
You may want to rate the tab now too:
select rating
Wanna post a correction for this tab? Suggest correction