Oops, an error
Loading. Please wait.

Elk Blood Heart bass

658 views 6 this week
2 commentsread comments
1 2 3 4 5
2 more votes to show rating
add to favorites
×
Save as Personal and add changes to this tab that will be seen only by you. Learn more ›
×
You can save this tab as Personal to edit and correct it or add notes. All changes will be seen only by you. Learn more »
launch autoscroll
font size
0
reset
guitar tuner
edit
Autoscroll
slow
fast
+/-
esc
set tempo
stop
-------------------------------------------------------------------------------
                             Elk Blood Heart - All them witches
-------------------------------------------------------------------------------
Tabbed by: salvador16
E-mail: salvador_limones16@yahoo.com

Tuning:whole step down DGCF
00:34
                            <----riff 1-------------------------> x2            1:01
F|-----------------------------------------------------------------------------------------|
C|--------------------------------5--------------------------------------------------------|
G|---------------------7-7--5h7-7---7-5----------------------7-7---------------------------|
D|---5-5-3h5-5--3-5----------------------5-5--3h5-5--0--3-----------------------0-3/12-----|

    dogs died in the park...     ..nothing we can do       01:24    ..let the bees(play riff 1)
F|-----------------------------------------------------------------------------------------|
C|-----------------------------------------------------------------------------------------|
G|-----------------3--3----------3--3-----------------------0/7----------------------------|
D|---0/5-----3--5--------5-3------------5--3-----------------------------------------------|

   there's nothing we can do               oh but praise them
F|--------------------------------------------------------------|
C|--------------------------------------------------------------|
G|-------3-3--------------3-3----------------3------------------|
D|--3-5-------5-3----3-5-------5-3--------5-----0---------------|

   chorus    oh Elk Blood Heart,tastes like the Great White North   every single door(this is the chorus riff)
F|---------------------------------------------------------------------------------------|
C|---------------------------------------------------------------------------------------|
G|-7-7-7-7-7-5h7-7-7-7-7-5---------------------------------------------------------------|
D|-------------------------7-7-7-7-7-5h7-7-7-7-7-6-5-5-5-5-5-3-0-----0-0-0-0-------------|


   let it ring through the arch...  bass riff 1
F|-----------------------------------------------------------------------------------------|
C|--------------------------------5--------------------------------------------------------|
G|---------------------7-7--5h7-7---7-5----------------------7-7---------------------------|
D|---5-5-3h5-5--3-5----------------------5-5--3h5-5--0--3-----------------------0-3/12-----|

    chorus( needless to say this is where you play the chorus riff)
F|---------------------------------------------------------------------------|
C|---------------------------------------------------------------------------|
G|---------------------------------------------------------------------------|
D|---------------------------------------------------------------------------|

03:50-04:05 you don't play and then
F|---------------------------------------------------------------------------|
C|---------------------------------------------------------------------------|
G|---------------------------------------------------------------------------|
D|---------------------------------0-0-0-0-0-0-0-----------------------------|
     04:11 bass solo riff repeat 3x until 04:55         ..and I hope you found the keys
F|----------------------------------------------------------------------------------------|
C|----------------------------------------------------------------------------------------|
G|------------------------------3-3-3-3-3-3-3-3-3-3--3-3---7-7-7-7-7-7-7-7-7-7-7-7--------|
D|----3-3-3-3-3-3-3-3-3-3-3-3-3-----------------------------------------------------------|

    04:56
F|-----------------------------------------------------------------------------------------------------------|
C|-----------------------------------------------------------------------------------------------------------|
G|-6-6-6-6-6-6-6-6-6-6-6-6--------------------------3-3-3-3-3-3-3-3-3-3-3-3--7-7-7-7-7-7-7-7-7-7-7-7---------|
D|-------------------------3-3-3-3-3-3-3-3-3-3-3-3-----------------------------------------------------------|
                                                                             05:33
F|-----------------------------------------------------------------------------------------------------------|
C|-----------------------------------------------------------------------------------------------------------|
G|--6-6-6-6-6-6-6-6-6-6-6-6--------------------------3-3-3-3-3-3-3-3-3-3-3-3--/7-----------------------------|
D|---------------------------3-3-3-3-3-3-3-3-3-3-3-3---------------------------------------------------------|

This is my second all them witches bass tab, I almost woke all my neighbors blasting the volume up to 11 to 
hear what Parks Jr. does with his magic fingers during the solo part.I wouldn't bet my soul it all 100%correct
but as usual corrections,discussions and suggestions are always welcome.

| /  slide up
| \  slide down
| h  hammer-on
| p  pull-off
| ~  vibrato
| +  harmonic
| x  Mute note
===============================================================================

            
            
Suggest correction
Creating personal tab
Creating personal tab
You can edit any tab online and save it as your Personal.

You can edit, replace or remove any tab part or add personal notes – all changes will be seen only by you.

Personal tabs can be accessed anytime from any device, even offline.
Learn more »
Give kudos to tab author, rate the tab!
1 2 3 4 5
comments
print report bad tab
2 comments total.
0 reply
TheRitoMage 10 May 15, 2016 02:39 PM

I've been waiting so long for this to be posted. Thanks!

guest
You may want to rate the tab now too:
select rating
Wanna post a correction for this tab? Suggest correction