Oops, an error
Loading. Please wait.

Family Song For The Leaving tab

187 views 15 this week
no commentswrite comment
1 2 3 4 5
3 more votes to show rating
add to favorites
×
Save as Personal and add changes to this tab that will be seen only by you. Learn more ›
×
You can save this tab as Personal to edit and correct it or add notes. All changes will be seen only by you. Learn more »
launch autoscroll
font size
0
reset
how to read this tab
guitar tuner
edit
Autoscroll
slow
fast
+/-
esc
set tempo
stop
About this tab version
Based on an acoustic version found at https://www.youtube.com/watch?v=cpNmWzL6JSY . I suspect he uses an alternate tuning, but the song sounds accurate enough in Drop D. Was this info helpful? Yes No
BPM = 80

[Intro]
    |          |           |           |            |           |           |           |
e|------------------------------------------------|-------------------------------------------------|
B|-----------0----------0-----------0-----------0-|----------0-----------0-----------0-----------0--|
G|-----0----------0-----------0-----------0-------|----0-----------0-----------0-----------0--------| x2
D|--------0----------0-----------0-----------0----|-------0-----------0-----------0-----------0-----|
A|--7-----------7----------7-----------7----------|-------------------------------------------------|
D|------------------------------------------------|-5-----------5-----------5-----------5-----------|


[Verse]
    |          |           |           |            |           |           |           |
e|------------------------------------------------|-------------------------------------------------|
B|-----------0----------0-----------0-----------0-|----------0-----------0-----------0-----------0--|
G|-----0----------0-----------0-----------0-------|----0-----------0-----------0-----------0--------| 
D|--------0----------0-----------0-----------0----|-------0-----------0-----------0-----------0-----|
A|--7-----------7----------7-----------7----------|-------------------------------------------------|
D|------------------------------------------------|-5-----------5-----------5-----------5-----------|
    Stay gone, are you a heavenly host?

    |          |           |           |            |           |           |           |
e|------------------------------------------------|-------------------------------------------------|
B|-----------0----------0-----------0-----------0-|----------0-----------0-----------0-----------0--|
G|-----0----------0-----------0-----------0-------|----0-----------0-----------0-----------0--------| 
D|--------0----------0-----------0-----------0----|-------0-----------0-----------0-----------0-----|
A|--7-----------7----------7-----------7----------|-------------------------------------------------|
D|------------------------------------------------|-5-----------5-----------5-----------5-----------|
    Don't come around, casting off old dogs and all their ghosts of

    |          |           |           |            |           |           |           |
e|------------------------------------------------|-------------------------------------------------|
B|--------0-------------0-----------0-----------0-|-------0--------------0--------0-----0-----------|
G|--------0-------0-----------0-----------0-------|-------0--------0--------------------------0-----|
D|-----2-------------2-----------2-----------2----|----5--------------5--------5-----------5--------|
A|--3----------------------3-----------3----------|-7-----------------------7--------7--------------|
D|------------------------------------------------|-------------------------------------------------|
   Trouble, coming for me

    |          |           |           |            |           |           |           |
e|------------------------------------------------|-------------------------------------------------|
B|--------0-------------0-----------0-----------0-|-------0--------------0--------0-----0-----------|
G|--------0-------0-----------0-----------0-------|-------0--------0--------------------------0-----|
D|-----2-------------2-----------2-----------2----|----5--------------5--------5-----------5--------|
A|--3----------------------3-----------3----------|-7-----------------------7--------7--------------|
D|------------------------------------------------|-------------------------------------------------|
   Trouble, coming for me

    |          |           |           |            |           |           |           |
e|------------------------------------------------|-------------------------------------------------|
B|--------0-------------0-----------0-----------0-|-------1--------------1-----------1-----------1--|
G|--------0-------0-----------0-----------0-------|-------0--------0-----------0-----------0--------|
D|-----2-------------2-----------2-----------2----|----2--------------2-----------2-----------2-----|
A|--3----------------------3-----------3----------|-0-----------------------0-----------0-----------|
D|------------------------------------------------|-------------------------------------------------|
   Trouble, coming for me


[Verse] 
    |          |           |           |            |           |           |           |
e|------------------------------------------------|-------------------------------------------------|
B|-----------0----------0-----------0-----------0-|----------0-----------0-----------0-----------0--|
G|-----0----------0-----------0-----------0-------|----0-----------0-----------0-----------0--------| 
D|--------0----------0-----------0-----------0----|-------0-----------0-----------0-----------0-----|
A|--7-----------7----------7-----------7----------|-------------------------------------------------|
D|------------------------------------------------|-5-----------5-----------5-----------5-----------|

    |          |           |           |            |           |           |           |
e|------------------------------------------------|-------------------------------------------------|
B|-----------0----------0-----------0-----------0-|----------0-----------0-----------0-----------0--|
G|-----0----------0-----------0-----------0-------|----0-----------0-----------0-----------0--------| 
D|--------0----------0-----------0-----------0----|-------0-----------0-----------0-----------0-----|
A|--7-----------7----------7-----------7----------|-------------------------------------------------|
D|------------------------------------------------|-5-----------5-----------5-----------5-----------|
    Take up your sage as a broom

    |          |           |           |            |           |           |           |
e|------------------------------------------------|-------------------------------------------------|
B|-----------0----------0-----------0-----------0-|----------0-----------0-----------0-----------0--|
G|-----0----------0-----------0-----------0-------|----0-----------0-----------0-----------0--------| 
D|--------0----------0-----------0-----------0----|-------0-----------0-----------0-----------0-----|
A|--7-----------7----------7-----------7----------|-------------------------------------------------|
D|------------------------------------------------|-5-----------5-----------5-----------5-----------|
    Casting off the countenance of Death and all its gloom, oh


[Chorus]
    |          |           |           |            |           |           |           |
e|------------------------------------------------|-------------------------------------------------|
B|--------0-------------0-----------0-----------0-|-------0--------------0--------0-----0-----------|
G|--------0-------0-----------0-----------0-------|-------0--------0--------------------------0-----|
D|-----2-------------2-----------2-----------2----|----5--------------5--------5-----------5--------|
A|--3----------------------3-----------3----------|-7-----------------------7--------7--------------|
D|------------------------------------------------|-------------------------------------------------|
   Trouble, coming for me

    |          |           |           |            |           |           |           |
e|------------------------------------------------|-------------------------------------------------|
B|--------0-------------0-----------0-----------0-|-------0--------------0--------0-----0-----------|
G|--------0-------0-----------0-----------0-------|-------0--------0--------------------------0-----|
D|-----2-------------2-----------2-----------2----|----5--------------5--------5-----------5--------|
A|--3----------------------3-----------3----------|-7-----------------------7--------7--------------|
D|------------------------------------------------|-------------------------------------------------|
   Trouble, coming for me

    |          |           |           |            |           |           |           |
e|------------------------------------------------|-------------------------------------------------|
B|--------0-------------0-----------0-----------0-|-------1--------------1-----------1-----------1--|
G|--------0-------0-----------0-----------0-------|-------0--------0-----------0-----------0--------|
D|-----2-------------2-----------2-----------2----|----2--------------2-----------2-----------2-----|
A|--3----------------------3-----------3----------|-0-----------------------0-----------0-----------|
D|------------------------------------------------|-------------------------------------------------|
   Trouble, coming for me


[Verse] 
    |          |           |           |            |           |           |           |
e|------------------------------------------------|-------------------------------------------------|
B|-----------0----------0-----------0-----------0-|----------0-----------0-----------0-----------0--|
G|-----0----------0-----------0-----------0-------|----0-----------0-----------0-----------0--------| 
D|--------0----------0-----------0-----------0----|-------0-----------0-----------0-----------0-----|
A|--7-----------7----------7-----------7----------|-------------------------------------------------|
D|------------------------------------------------|-5-----------5-----------5-----------5-----------|

    |          |           |           |            |           |           |           |
e|------------------------------------------------|-------------------------------------------------|
B|-----------0----------0-----------0-----------0-|----------0-----------0-----------0-----------0--|
G|-----0----------0-----------0-----------0-------|----0-----------0-----------0-----------0--------| 
D|--------0----------0-----------0-----------0----|-------0-----------0-----------0-----------0-----|
A|--7-----------7----------7-----------7----------|-------------------------------------------------|
D|------------------------------------------------|-5-----------5-----------5-----------5-----------|

    |          |           |           |            |           |           |           |
e|------------------------------------------------|-------------------------------------------------|
B|-----------0----------0-----------0-----------0-|----------0-----------0-----------0-----------0--|
G|-----0----------0-----------0-----------0-------|----0-----------0-----------0-----------0--------| 
D|--------0----------0-----------0-----------0----|-------0-----------0-----------0-----------0-----|
A|--7-----------7----------7-----------7----------|-------------------------------------------------|
D|------------------------------------------------|-5-----------5-----------5-----------5-----------|
    Come all you Christians, and lay down your blood,

    |          |           |           |            |           |           |           |
e|------------------------------------------------|-------------------------------------------------|
B|-----------0----------0-----------0-----------0-|----------0-----------0-----------0-----------0--|
G|-----0----------0-----------0-----------0-------|----0-----------0-----------0-----------0--------| 
D|--------0----------0-----------0-----------0----|-------0-----------0-----------0-----------0-----|
A|--7-----------7----------7-----------7----------|-------------------------------------------------|
D|------------------------------------------------|-5-----------5-----------5-----------5-----------|
    Feeling poor, old backs to break, no love here to find, no,


[Chorus]
    |          |           |           |            |           |           |           |
e|------------------------------------------------|-------------------------------------------------|
B|--------0-------------0-----------0-----------0-|-------0--------------0--------0-----0-----------|
G|--------0-------0-----------0-----------0-------|-------0--------0--------------------------0-----|
D|-----2-------------2-----------2-----------2----|----5--------------5--------5-----------5--------|
A|--3----------------------3-----------3----------|-7-----------------------7--------7--------------|
D|------------------------------------------------|-------------------------------------------------|
   Trouble, coming for me

    |          |           |           |            |           |           |           |
e|------------------------------------------------|-------------------------------------------------|
B|--------0-------------0-----------0-----------0-|-------0--------------0--------0-----0-----------|
G|--------0-------0-----------0-----------0-------|-------0--------0--------------------------0-----|
D|-----2-------------2-----------2-----------2----|----5--------------5--------5-----------5--------|
A|--3----------------------3-----------3----------|-7-----------------------7--------7--------------|
D|------------------------------------------------|-------------------------------------------------|
   Trouble, coming for me

    |          |           |           |            |           |           |           |
e|------------------------------------------------|-------------------------------------------------|
B|--------0-------------0-----------0-----------0-|-------1--------------1-----------1-----------1--|
G|--------0-------0-----------0-----------0-------|-------0--------0-----------0-----------0--------|
D|-----2-------------2-----------2-----------2----|----2--------------2-----------2-----------2-----|
A|--3----------------------3-----------3----------|-0-----------------------0-----------0-----------|
D|------------------------------------------------|-------------------------------------------------|
   Trouble, coming for me


[Post-Chorus]
    |          |           |           |            |           |           |           |
e|------------------------------------------------|-------------------------------------------------|
B|-----------0----------0--------0-------------0--|----------0-----------0-----------0-----------0--|
G|-----0----------0--------------0-------0--------|----0-----------0-----------0-----------0--------| 
D|--------0----------0--------0-------------0-----|-------0-----------0-----------0-----------0-----|
A|--7-----------7----------7----------------------|-------------------------------------------------|
D|------------------------------------------------|-5-----------5-----------5-----------5-----------|

    |          |           |           |            |           |           |           |
e|------------------------------------------------|-------------------------------------------------|
B|-----------0----------0--------0-------------0--|----------0-----------0-----------0-----------0--|
G|-----0----------0--------------0-------0--------|----0-----------0-----------0-----------0--------| 
D|--------0----------0--------0-------------0-----|-------0-----------0-----------0-----------0-----|
A|--7-----------7----------7----------------------|-------------------------------------------------|
D|------------------------------------------------|-5-----------5-----------5-----------5-----------|


[Outro]
    |          |           |           |            |           |           |           |
e|------------------------------------------------|-------------------------------------------------|
B|-----------0----------0-----------0-----------0-|----------0-----------0-----------0-----------0--|
G|-----0----------0-----------0-----------0-------|----0-----------0-----------0-----------0--------|  x8
D|--------0----------0-----------0-----------0----|-------0-----------0-----------0-----------0-----|
A|--7-----------7----------7-----------7----------|-------------------------------------------------|
D|------------------------------------------------|-5-----------5-----------5-----------5-----------|
Suggest correction
Creating personal tab
Creating personal tab
You can edit any tab online and save it as your Personal.

You can edit, replace or remove any tab part or add personal notes – all changes will be seen only by you.

Personal tabs can be accessed anytime from any device, even offline.
Learn more »
Give kudos to tab author, rate the tab!
1 2 3 4 5
comments
print report bad tab
guest
You may want to rate the tab now too:
select rating
Wanna post a correction for this tab? Suggest correction