Oops, an error
Loading. Please wait.

Heavy Like A Witch Tab

version 1
version 1

Intro

Whole song

292 views 18 this week
no commentswrite comment
1 2 3 4 5
1 last vote to show rating
add to favorites
launch autoscroll
font size
0
reset
how to read this tab
guitar tuner
Autoscroll
slow
fast
+/-
esc
set tempo
stop
Help us to improve Ultimate-Guitar.com Take our survey!
×
Author
Difficulty
novice
Artist: All Them Witches
Song: Heavy/Like a Witch
Album: Our Mother Electricity


play this many times
e|-------------------------------------------------------------------------| riff 1
B|-------------------------------------------------------------------------|
G|-------------------------------12b---------------------------------------|
D|----10h12-12~12~12-12p10-12-----------10h12-12-12-12-12p10---------------|
A|----------------------------------------------------------------12-10----|
E|-------------------------------------------------------------------------|


then this one time
e|---------------------|
B|---------------------|
G|---------------------|
D|-----10h12-12-12-----|
A|---------------------|
E|---------------------|

.. and then this riff many times
e|--------------------------------------------| riff 2
B|--------------------------------------------|
G|--------------------------------------------|
D|---10~10~10~10~10~10~10-10p9-----12---------|
A|-----------------------------10--12---------|
E|---------------------------------10---------|

then repeat.


************************************

| h   hammer-on
| p   pull-off
| ~   vibrato
| b   Bend

************************************
Suggest correction
Give kudos to tab author, rate the tab!
1 2 3 4 5
comments
print report bad tab
guest
You may want to rate the tab now too:
select rating
Wanna post a correction for this tab? Suggest correction