Oops, an error
Loading. Please wait.

Heavy Like A Witch Tab

version 1
version 1

Whole song

43 views 21 this week
no commentswrite comment
1 2 3 4 5
3 more votes to show rating
add to favorites
launch autoscroll
font size
0
reset
how to read this tab
guitar tuner
Autoscroll
slow
fast
+/-
esc
set tempo
stop
Help us to improve Ultimate-Guitar.com Take our survey!
×
Author
Difficulty
Tuning
novice
D G C F A D
play this many times
D|-------------------------------------------------------------------------| riff 1
A|-------------------------------------------------------------------------|
F|-------------------------------10--------12b-----------------------------|
C|----10h12-x--x--x--x--x--x--x--x--12--10-------10h12-x-x-x-12p10---------|( when it change in riff 2, 
G|----------------------------------------------------------------12-10----| stay on 
D|-------------------------------------------------------------------------| 12th on the 4 string during the
                                                                             riff change)

 riff2
D|-------------------------------------------------------------------------|
A|-------------------------------------------------------------------------|
F|-------------------------------------------------------------------------|
C|----10-10-10-10-10-10-10-10-9-7-7----------------------------------------|
G|-------------------------------------------------------------------------|
D|-------------------------------------------------------------------------|

 prebreak
D|-------------------------------------------------------------------------|
A|-------------------------------------------------------------------------|
F|-------------------------------------------------------------------------|
C|-------------------------------10b-12-12---------------------------------|
G|-------------------10h12p10-12-----12-12---------------------------------|
D|-------10-10-8-10------------------10-10---------------------------------|

 break
D|-------------------------------------------------------------------------|
A|-------------------------------------------------------------------------|
F|-------------------------------------------------------------------------|
C|-------------------------------------------------------------------------|
G|-------12-10-------------------------------------------------------------|
D|-------------12-10--7-8-10--7-8-10-10------------------------------------|


D|-------------------------------------------------------------------------| riff 1 variation
A|-------------------------------------------------------------------------|
F|---------------------------10--------12b---------------10---------10-----|
C|10h12-x--x--x--x--x--x--x--x--12--10-------10h12-x-x-x----12-10--------12|
G|---------------------------------------------------------------12--------| 
D|-------------------------------------------------------------------------|


 end riff
D|-------------------------------------------------------------------------|
A|-------------------------------------------------------------------------|
F|-------------------------------------------------------------------------|
C|---12/14-14-14/12--12-12/14----------------------------------------------|
G|---12/14-14-14/12--12-12/14----------------------------------------------|
D|---10/12-12-12/10--10-10/12----------------------------------------------|



************************************

| b  Bend
| x  Dead note
| h  Hammer-on
| p  Pull-off
| /  Slide up

************************************
Suggest correction
Give kudos to tab author, rate the tab!
1 2 3 4 5
comments
print report bad tab
guest
You may want to rate the tab now too:
select rating
Wanna post a correction for this tab? Suggest correction