Oops, an error
Loading. Please wait.

This Is Where It Falls Apart Bass Tab

25 views 3 this week
no commentswrite comment
1 2 3 4 5
2 more votes to show rating
add to favorites
launch autoscroll
font size
0
reset
guitar tuner
Autoscroll
slow
fast
+/-
esc
set tempo
stop
Help us to improve Ultimate-Guitar.com Take our survey!
×
Author
Difficulty
novice
 Another masterpiece of a track straight from the album version,this time I decided to be true to them and tab
the bass a whole step down  DGCF.It's a bluesy slow pace song so take your time and soak up its spirit.
And most of all have fun playing,good luck gents and ladies as well.

[Intro]

    0:32     main riff                                  let it ring 0:44
F|---------------------------------------------------------------------------|
C|--5/7--9/12\9----7-7-7-7-7---6-6-6-6-6---5-5-5-5-5-----0/9-----------------|
G|---------------------------------------------------------------------------|
D|---------------------------------------------------------------------------|

  [Verse]  0:47 ..we are at the center of the beast      1:00 first variation for this main riff that repeats
through out the whole song
F|---------------------------------------------7-----------9-7-9--------------------------|
C|---7-7-7-7-7---6-6-6-6-6--5-5-5-5-5--/7---9----9----7-7---------6-6-6-6-6--5-5-5-5-5----|
G|----------------------------------------------------------------------------------------|
D|----------------------------------------------------------------------------------------|


  main riff with a second variation                                      1:23 
F|---------------------------------------------------------------7--------9-7--------------9-7---------------|
C|-7-7-8----9/12\9----7-7-7-7-7---6-6-6-6-6---5-5-5-5-5-----7--9---9--7-7-----9-----6-6-6-------5-5-5-5-5----|
G|-----------------------------------------------------------------------------------------------------------|
D|-----------------------------------------------------------------------------------------------------------|

  1:29    variation 3
G|---------------------------------------------------------------------------|
D|--5-5-/7--9/12\9---7-7-7-7-7--6-6-6-6-6---5-5-5-5-5------------------------|
A|---------------------------------------------------------------------------|
D|---------------------------------------------------------------------------|
          variation 4
G|---------------------------------------------------------------------------|
D|--5-5-/7--9/12\9---7-7-7/9\7--6-6-6-6-6---5-5-5-5-5------------------------|
A|---------------------------------------------------------------------------|
D|---------------------------------------------------------------------------|

basically this riff goes over and over and its up to you to add these variations to give it some diversity and
you can play with some pentatonic patterns also if you want to improvise and not be a carbon copy.


[Outro]

F|---------------------------------------------7-----------9-7-9--------------------------|
C|---7-7-7-7-7---6-6-6-6-6--5-5-5-5-5--/7---9----9----7-7---------6-6-6-6-6--5-5-5-5-5----|
G|----------------------------------------------------------------------------------------|
D|----------------------------------------------------------------------------------------|
                                                     ....gently start to fade out            6:17
F|---------------------------------------------------------------7--------9-7--------------------------------|
C|-7-7-8----9/12\9----7-7-7-7-7---6-6-6-6-6---5-5-5-5-5-----7--9---9--7-7-----9-----6-6-6-------5-5/7----9---|
G|-----------------------------------------------------------------------------------------------------------|
D|-----------------------------------------------------------------------------------------------------------|


     We are all at the center and we're still spinnin'   :)

************************************
| /   Slide up
| \   Slide down
************************************
Suggest correction
Give kudos to tab author, rate the tab!
1 2 3 4 5
comments
print report bad tab
guest
You may want to rate the tab now too:
select rating
Wanna post a correction for this tab? Suggest correction