Oops, an error
Loading. Please wait.

A Love Like War Tab

version 2
version 2

Intro

Interactive

6,392 views 9 this week
no commentswrite comment
1 2 3 4 5
worth learning
x 4
add to favorites
launch autoscroll
font size
0
reset
how to read this tab
guitar tuner
Tab Pro tools
  • play this tab
  • loop segment
  • change instrument
  • show fretboard
  • metronome
Autoscroll
slow
fast
+/-
esc
set tempo
stop
Difficulty
Tuning
novice
C# G# C# F# A# D#
-------------------------------------------------------------------------------
                             All Time Low - A Love Like War
-------------------------------------------------------------------------------
Tabbed by: Alerion617
E-mail: alerion617@hotmail.co.uk

Tuning: Drop C# (That's what I play it in. However it could be Drop D)


INTRO + Verse
e|---3---3---3---3--------------------------------------------------------------|
B|---3---3---3---3--------------------------------------------------------------|
G|---4---4---4---4------7-----9-------------------------------------------------|
D|---7---7---7---7------7-----9----------6---7----------------------------------|
A|----------------------------7------7------------------------------------------|
E|------------------------------------------------------------------------------|

e|---x---x---x---x------------------------------|-------------------------------|
B|---x---x---x---x------------------------------|-------------------------------|
G|---4---4---4---4------------------------------|-------------------------------|
D|---6---6---6---6------7-----4------4---6---7--|-----7------4---7------4-------|
A|---4---4---4---4------7-----4-----------------|-----7------4---7------4-------|
E|----------------------------------------------|-------------------------------|

Repeat x6


Pre-Chorus
e|---------------------------------------------------------------------------|
B|---------------------------------------------------------------------------|
G|--7-7-7-7-7-7-7-7-7-7-7-7---6-6---4-4-4-4-4-4-4-4--------------------------|
D|--x-x-x-x-x-x-x-x-x-x-x-x---x-x---x-x-x-x-x-x-x-x--------------------------|
A|--5-5-5-5-5-5-5-5-5-5-5-5---4-4---2-2-2-2-2-2-2-2---2-2-2-2-2-2------------|
E|----------------------------------------------------2-2-2-2-2-2------------|

e|---------------------------------------------------------------------------|
B|---------------------------------------------------------------------------|
G|---------------------------------------------------------------------------|
D|---------------------------------------------------------------------------|
A|--4-4-4-4-4-4-4-4-4-4-4-4---7-7-7-7-7-7-7-7-7-7-7-7------------------------|
E|--4-4-4-4-4-4-4-4-4-4-4-4---7-7-7-7-7-7-7-7-7-7-7-7------------------------|

Repeat x2 Before Chorus (You can also harmonize with it by going to 7x9 instead of 2 on 
the low E string)

CHORUS

e|-----------------------------------------------------------------------|---|
B|-----------------------------------------------------------------------|---|
G|-7-7-7-7---4--------------------------6-6-6-6--------------------------|---|
D|-7-7-7-7---4--------x-x-x-x-x-x-x-x---6-6-6-6----------x-x-x-x-x-x-x-x-|---|
A|-5-5-5-5---2---2----x-x-x-x-x-x-x-x---4-4-4-4--7---4---x-x-x-x-x-x-x-x-|---|
E|---------------2----x-x-x-x-x-x-x-x------------7---4---x-x-x-x-x-x-x-x-|---|


Repeat the Chorus x2 and go back and play Intro/Verse x4
Then play the Pre-Chorus x2 and play the Chorus x2


SOLO 1

e|---------------------------------------------------------------------------|
B|-10-10------10-10----9-9-----9-9-----9-9-----9-9---10-10-------10-10-------|
G|------11-11-------11-----9-9-----9-------9-9-----9-------11-11-------11----|
D|---------------------------------------------------------------------------|
A|---------------------------------------------------------------------------|
E|---------------------------------------------------------------------------|

e|------------------------------------------------------7---9----------------|
B|-10-10-------10-10----9-9-----9-9-------7---9---10-----------10------------|
G|-------11-11-------11-----9-9-----9----------------------------------------|
D|---------------------------------------------------------------------------|
A|---------------------------------------------------------------------------|
E|---------------------------------------------------------------------------|

Harmonizing Solo Part
e|----------------19---21----------------------------------------------------|
B|-19---21---22-------------22-----------------------------------------------|
G|---------------------------------------------------------------------------|
D|---------------------------------------------------------------------------|
A|---------------------------------------------------------------------------|
E|---------------------------------------------------------------------------|



Acoustic Part (Not Sure About This)

e|---------------------------------------------------------------------------|
B|---------------------------------------------------------------------------|
G|---------3-----3-----3---------3------3-----3-----3----1-------------------|
D|-------4---4-----4-----4------4----4---4-----4------4----4-----------------|
A|--5---5-------5-----5-----5--4-2--2-------2-----2----------2---------------|
E|---------------------------------------------------------------------------|



Bridge thing

e|---------------------------------------------------------------------------|
B|---------------------------------------------------------------------------|
G|---------------------------------------------------------------------------|
D|---------------------------------------------------------------------------|
A|--4--4--4--4--4--4--4--4-------7-7-7-7-7------7-7-7-7-7--------------------|
E|--4--4--4--4--4--4--4--4-------7-7-7-7-7------7-7-7-7-7--------------------|   
    x  x  x  x  x  x  x  x


The rest of the song is the same



Song order:

|Intro/Verse|
|Pre-Chorus|
|Chorus|
|Intro/Verse|
|Pre-Chorus|
|Chorus|
|Solo|
|Acoustic Part|
|Bridge Thing|
|Pre-Chorus|
|Chorus(Outro)|
|Outro Solo (Same as Solo)|

Apologies for any mistakes, this is the first tab I've ever written. I just learned the 
song a few hours ago and decided to write a tab for it. This might be a little sloppy 
but the song did just come out yesterday.

I quickly recorded myself playing this tab so some of you can hear how it goes. 
Apologies again for sloppiness and my playing and the tabs.

https://soundcloud.com/dan-alesana-hardie/a-love-like-war-all-time-low
comments
print report bad tab
I want to post or [tab]
guest
You may want to rate the tab now too:
select rating
Please do not post tabs as comments. Select "correction" instead!