Oops, an error
Loading. Please wait.

A Love Like War Tab

version 3
version 3

Interactive

2,575 views 4 this week
2 commentsread comments
1 2 3 4 5
please rate
add to favorites
launch autoscroll
font size
0
reset
how to read this tab
guitar tuner
Tab Pro tools
  • play this tab
  • loop segment
  • change instrument
  • show fretboard
  • metronome
×
Best way to learn
"A Love Like War"
Autoscroll
slow
fast
+/-
esc
set tempo
stop
Contributor
-----------------------------------------------------------------------------
                            "A Love like War" All Time Low Feat. Vic Fuentes
-----------------------------------------------------------------------------
Tabbed by: Schmidtington
E-mail:

Tuning:Db, Ab, Db, Gb, Bb, Eb

Intro and Verse:

|---------------------------------------------------------------------------|
|----------------------------2------------------------------2---------------|
|---6666---7---------------2-------4444---6----------------2----------------|
|---XXXX---X----2\\------4---------XXXX---X-----4\\\-----4------------------|
|---4444---5----2\\----------------2222---4-----4\\\------------------------|
|---------------2\\-----------------------------4\\\------------------------|

Chorus (chord progression)
        Db        C         Bb      Eb       F         Ab       
|-------5---------4---------2-----------------------------------------------|
|-------5---------4---------2-----------------------------------------------|
|-------7---------6---------4-----------------------------------------------|
|-------7---------6---------4--------2-------4----------7-------------------|
|-------5---------4---------2--------2-------4----------7-------------------|
|------------------------------------2-------4----------7-------------------|

Post Chorus ("We go together")

|----5555--5-----------------4444--4----------------------------------------|
|----5555--5-----------------4444--4----------------------------------------|
|----7777--7-----------------6666--6----------------------------------------|
|----7777--7---2-xxx--xxx----6666--6---4xxx--xxx----------------------------|
|----5555--5---2-xxx--xxx----4444--4---4xxx--xxx----------------------------|
|--------------2-xxx--xxx--------------4xxx--xxx----------------------------|

(X2)(Second time let last chord ring)

Interlude(Chord Progression)
          Db           C               Bb            Eb       F       Ab
|---------5---------4---------2-------7-------------------------------------|
|---------5---------4---------2-------7-------------------------------------|
|---------7---------6---------4-------9-------------------------------------|
|---------7---------6---------4-------9--------4-------7777---7777----------|
|---------5---------4---------2-------7--------4-------7777---7777----------|
|----------------------------------------------4-------7777---7777----------|

Pick first 4 Chords of interlude



************************************

| /   slide up
| \   slide down
| h   hammer-on
| p   pull-off
| ~   vibrato
| +   harmonic
| x   Mute note
| b   Bend
| pb  Pre-bend
| br  Bend release
| pbr Pre-bend release
| brb Bend release bend

************************************
comments
We did not receive enough feedback on this tab! Please rate:
print report bad tab
1 2 3 4 5
2 comments total.
0 reply
Schmidtington wrote on September 5 2013, 09:11 pm

Constructive criticism! help me make better tabs!

0 reply
cocopunk1486 wrote on February 5 2015, 04:02 pm

Lack of formatting. Lack of accuracy. Tab incomplete. There's very little formate, and it doesn't even cover the complete song. Doesn't tell you how many times you play a chord, and doesn't differentiate between lead or rhythm guitars

I want to post or [tab]
guest
You may want to rate the tab now too:
select rating
Please do not post tabs as comments. Select "correction" instead!