Oops, an error
Loading. Please wait.

A Love Like War Tab

version 4
version 4

Interactive

21,439 views 48 this week
no commentswrite comment
1 2 3 4 5
accurate
x 5
add to favorites
launch autoscroll
font size
0
reset
how to read this tab
guitar tuner
Autoscroll
slow
fast
+/-
esc
set tempo
stop
Help us to improve Ultimate-Guitar.com Take our survey!
×
Author
Tuning
D A D G B E
All Time Low (ft. Vic Fuentes) - A Love Like War guitar tab
from Don't Panic, It's Longer Now (2013)
by Scalar719

Tuning: Drop D



[Intro]

Guitar 1 (lead)
e|---------------------------------------------------------------------------|
B|---------------------------------------------------------------------------|
G|--5-5-5-5--6-3\----------3-3-3-3-------------------------------------------|
D|--6-6-6-6--6-3\-----5-6--3-3-3-3--6-3\-------------------------------------|
A|------------------6---------------6-3\-------------------------------------|
D|---------------------------------------------------------------------------|

e|---------------------------------------------------------------------------|
B|---------------------------------------------------------------------------|
G|--------5-5-5-5--6-3\----------3-3-3-3-------------------------------------|
D|--3-5-6-6-6-6-6--6-3\-----5-6--3-3-3-3--6-3\-------------------------------|
A|------------------------6---------------6-3\-------------------------------|
D|---------------------------------------------------------------------------|


[Verse]

Guitar 1 (lead)
e|---------------------------------------------------------------------------|
B|---------------------------------------------------------------------------|
G|--------5-5-5-5--6-3\---------3-3-3-3-----------------------------(x4)-----|
D|--3-5-6-6-6-6-6--6-3\----5-6--3-3-3-3--6-3\--------------------------------|
A|-----------------------6---------------6-3\--------------------------------|
D|---------------------------------------------------------------------------|

[Pre-Chorus]

Guitar 1 (lead)
e|---------------------------------------------------------------------------|
B|--6-8-9-11----6-8-9-11-----------------------------------------------------|
G|---------------------------------------------------------------------------|
D|---------------------------------------------------------------------------|
A|---------------------------------------------------------------------------|
D|---------------------------------------------------------------------------|


Guitar 2 (Rhythm)
e|---------------------------------------------------------------------------|
B|---------------------------------------------------------------------------|
G|---------------------------------------------------------------------------|
D|--3-----------3------------------------------------------------------------|
A|--3-----------3------------------------------------------------------------|
D|--3-----------3------------------------------------------------------------|



[Chorus]

Guitar 1 (lead) & Guitar 2 (Rhythm)
e|---------------------------------------------------------------------------|
B|---------------------------------------------------------------------------|
G|--6666666666666666-6-5-3333333---------------------------------------------|
D|--6666666666666666-6-5-3333333-1111111111----------------------------------|
A|--4444444444444444-4-3-1111111-1111111111----------------------------------|
D|-------------------------------1111111111----------------------------------|

e|---------------------------------------------------------------------------|
B|---------------------------------------------------------------------------|
G|---------------------------------------------------------------------------|
D|--3-3-3-3-3--3-3-3-3-3--3-3-3-3--6-6-6-6-6--6-6-6-6-6--6-6-6-6-----(x2)----|
A|--3-3-3-3-3--3-3-3-3-3--3-3-3-3--6-6-6-6-6--6-6-6-6-6--6-6-6-6-------------|
D|--3-3-3-3-3--3-3-3-3-3--3-3-3-3--6-6-6-6-6--6-6-6-6-6--6-6-6-6-------------|

e|---------------------------------------------------------------------------|
B|---------------------------------------------------------------------------|
G|--6-6-6-6--3-------------5-5-5-5--------------------------------(x2)-------|
D|--6-6-6-6--3-1--x-x-x-x--5-5-5-5--6-3--x-x-x-x-----------------------------|
A|--4-4-4-4--1-1--x-x-x-x--3-3-3-3--6-3--x-x-x-x-----------------------------|
D|-------------1--x-x-x-x-----------6-3--x-x-x-x-----------------------------|


(Repeat Verse)

(Repeat Chorus)


[Solo]

Guitar 1 (lead)
e|---------------------------------------------------------------------------|
B|--9-9-------9-9-----8-8-----8-8------8-8-----8-8-----9-9-------9-9---------|
G|------10-10-----10~-----8-8-----8-8------8-8-----8-8-----10-10-----10~-----|
D|---------------------------------------------------------------------------|
A|---------------------------------------------------------------------------|
D|---------------------------------------------------------------------------|

e|----------------------------------------------18-18/20-16~-----------------|
B|--9-9-------9-9-----8-8-----8-8------------11------------------------------|
G|------10-10-----10~-----8-8-----8-8-----12---------------------------------|
D|-------------------------------------13------------------------------------|
A|---------------------------------------------------------------------------|
D|---------------------------------------------------------------------------|


Guitar 2 (Rhythm)
e|---------------------------------------------------------------------------|
B|---------------------------------------------------------------------------|
G|--6-6-6-6--3-------------5-5-5-5--------------------------------(x2)-------|
D|--6-6-6-6--3-1--x-x-x-x--5-5-5-5--6-3--x-x-x-x-----------------------------|
A|--4-4-4-4--1-1--x-x-x-x--3-3-3-3--6-3--x-x-x-x-----------------------------|
D|-------------1--x-x-x-x-----------6-3--x-x-x-x-----------------------------|


[Bridge]

Guitar 1 (lead, clean)
e|---------------------------------------------------------------------------|
B|---------------------------------------------------------------------------|
G|---------------------------------------------------------------------------|
D|----3-------6---6-----------6----5--6---6---3--6---6---6---66666-66666-----|
A|--4---4---4---4---4-3---6-----/6--6---6---4--4---4---4-----66666-66666-----|
D|----------------------8---8------------------------------------------------|

Guitar 2 (Rhythm)
e|---------------------------------------------------------------------------|
B|---------------------------------------------------------------------------|
G|---------------------------------------------------------------------------|
D|-------------------------3-3-3-3-3-3-3-3-3-3-3-3-3-3-3-3---66666-66666-----|
A|-------------------------3-3-3-3-3-3-3-3-3-3-3-3-3-3-3-3---66666-66666-----|
D|-------------------------3-3-3-3-3-3-3-3-3-3-3-3-3-3-3-3---66666-66666-----|
[pm                        ...............................]



[Final Chorus]

Guitar 1 (lead)
e|---------------------------------------------------------------------------|
B|---------------------------------------------------------------------------|
G|-13-13-13-13-13-13-13-13-13-13-13-13--18-17--15-15-15-15-15-15-15-15-15-15-|
D|-x--x--x--x--x--x--x--x--x--x--x--x---x--x---x--x--x--x--x--x--x--x--x--x--|
A|-11-11-11-11-11-11-11-11-11-11-11-11--16-15--13-13-13-13-13-13-13-13-13-13-|
D|---------------------------------------------------------------------------|

e|---------------------------------------------------------------------------|
B|---------------------------------------------------------------------------|
G|-13-13-13-13-13--13-13-13-13-13----17-17-17-17-17--17-17-17-17-17----------|
D|-x--x--x--x--x---x--x--x--x--x-----x--x--x--x--x---x--x--x--x--x----(x2)---|
A|-11-11-11-11-11--11-11-11-11-11----15-15-15-15-15--15-15-15-15-15----------|
D|---------------------------------------------------------------------------|


Guitar 2 (Rhythm)
e|---------------------------------------------------------------------------|
B|---------------------------------------------------------------------------|
G|--6666666666666666-6-5-3333333---------------------------------------------|
D|--6666666666666666-6-5-3333333-1111111111----------------------------------|
A|--4444444444444444-4-3-1111111-1111111111----------------------------------|
D|-------------------------------1111111111----------------------------------|

e|---------------------------------------------------------------------------|
B|---------------------------------------------------------------------------|
G|---------------------------------------------------------------------------|
D|--3-3-3-3-3--3-3-3-3-3--3-3-3-3--6-6-6-6-6--6-6-6-6-6--6-6-6-6-----(x2)----|
A|--3-3-3-3-3--3-3-3-3-3--3-3-3-3--6-6-6-6-6--6-6-6-6-6--6-6-6-6-------------|
D|--3-3-3-3-3--3-3-3-3-3--3-3-3-3--6-6-6-6-6--6-6-6-6-6--6-6-6-6-------------|


Guitar 1 (lead) & Guitar 2 (Rhythm)
e|---------------------------------------------------------------------------|
B|---------------------------------------------------------------------------|
G|--6-6-6-6--3-------------5-5-5-5--------------------------------(x2)-------|
D|--6-6-6-6--3-1--x-x-x-x--5-5-5-5--6-3--x-x-x-x-----------------------------|
A|--4-4-4-4--1-1--x-x-x-x--3-3-3-3--6-3--x-x-x-x-----------------------------|
D|-------------1--x-x-x-x-----------6-3--x-x-x-x-----------------------------|


[Outro]

(Repeat Solo)




Legend: 
/    = slide up
\    = slide down
~    = virbato
.    = palm mute
b    = bend string
r    = release bend
x    = muted string
*    = artificial harmonic
(x)  = natural harmonic
Suggest correction
comments
print report bad tab
guest
You may want to rate the tab now too:
select rating
Wanna post a correction for this tab? Suggest correction