Oops, an error
Loading. Please wait.

A Party Song Bass Tab

version 1
version 1

Whole song

10,788 views 18 this week
no commentswrite comment
1 2 3 4 5
excellent!
x 4
add to favorites
launch autoscroll
font size
0
reset
guitar tuner
Tab Pro tools
  • play this tab
  • loop segment
  • change instrument
  • show fretboard
  • metronome
Autoscroll
slow
fast
+/-
esc
set tempo
stop
Difficulty
Tuning
novice
D A D G B E
A PARTY SONG - ALL TIME LOW

This song shouldn't be too hard to play so enjoy its a great song :)


INTRO
G|------------------------------------------------------------|
D|------------------------------------------------------------|
A|------------------------------------------------------------|
D|1-1----8-8----6-6----6-6----1-1----8-8----6-6----6-6----6/8-|

G|------------------------------------------------------------|
D|------------------------------------------------------------|
A|------------------------------------------------------------|
D|1-1----8-8----6-6----6-6----1-1----8-8----6-----6/14--------|

VERSE
G|-------------------------------------------------------------|
D|-------------------------------------------------------------|
A|-------------------------------------------------------------|
D|-1-1--1-111--1-111--1-1--6-6---1-1--1-111--1-111--1-1--6-6---|

G|-------------------------------------------------------|
D|-------------------------------------------------------|
A|--------------------------------33333333---------------|
D|-1-1--1-111--1-111--1-1--6-6-------------6666666/8-----|

CHORUS
G|------------------------------------------------------------------------|
D|------------------------------------------------------------------------|
A|------------------------------------------------------------------------|
D|-1-1---5-5---66666666--1-1---8-8---66666666--1111-8888-5555-6666--------|

G|-----------------------|
D|-----------------------|
A|-3-3-------------------|
D|------5-5--66666666----|

POST CHORUS
G|----------------------------------------------|
D|----------------------------------------------|
A|----------------------------------------------|
D|1-1----8-8----6-6----6-6----1-1----8-8----6~--|

VERSE
G|-------------------------------------------------------------|
D|-------------------------------------------------------------|
A|-------------------------------------------------------------|
D|-1-1--1-111--1-111--1-1--6-6---1-1--1-111--1-111--1-1--6-6---|

G|-------------------------------------------------------|
D|-------------------------------------------------------|
A|--------------------------------33333333---------------|
D|-1-1--1-111--1-111--1-1--6-6-------------6666666/8-----|

CHORUS
G|------------------------------------------------------------------------|
D|------------------------------------------------------------------------|
A|------------------------------------------------------------------------|
D|-1-1---5-5---66666666--1-1---8-8---66666666--1111-8888-5555-6666--------|

G|-----------------------|
D|-----------------------|
A|-3-3-------------------|
D|------5-5--66666666----|

BRIDGE
G|------------------------------------------------------------------------|
D|------------------------------------------------------------------------|
A|-33333333-----------------------------3333------------------------------|
D|-----------66666666--1--1---88888888-------55555555-66666666---8-8------|

BRAKE(NO BASS)


BRIDGE
G|--------------------------------------------|
D|--------------------------------------------|
A|-----------------------3-3------------------|
D|-1111-8888-5555-6666--------5-5--66666666---|

OUTRO
G|------------------------------------------------------------|
D|------------------------------------------------------------|
A|------------------------------------------------------------|
D|1-1----8-8----6-6----6-6----1-1----8-8----6-6----6-6----6h8-|

G|----------------------------------------------|
D|----------------------------------------------|
A|----------------------------------------------|
D|1-1----8-8----6-6----6-6----1-1----8-8----6---|

THATS IT!
comments
print report bad tab
I want to post or [tab]
guest
You may want to rate the tab now too:
select rating
Please do not post tabs as comments. Select "correction" instead!