Oops, an error
Loading. Please wait.

A Party Song Tab

version 1
version 1

Live

Whole song

343 views 3 this week
no commentswrite comment
1 2 3 4 5
please rate
add to favorites
launch autoscroll
font size
0
reset
how to read this tab
guitar tuner
Autoscroll
slow
fast
+/-
esc
set tempo
stop
Help us to improve Ultimate-Guitar.com Take our survey!
×
Author
Difficulty
Tuning
Khalamity 474
novice
C# G# C# F# A# D#
All Time Low - A Party Song Live
Tabbed by : Khalamity
Drop C#
Based on their Straight to DVD Performance

Format :

Main Riff
Verse
Chorus
Main Riff
Verse
Chorus
Bridge
Breakdown
Chorus

~~~~~~~~Main Riff~~~~~~~~

Lead
D#|--------------------------------------------------------------|
A#|--------------------------------------------------------------|
F#|-12/10--12/8--12/10-13/12-10\12--12/10--7\8--12/10-13/12-10/8-|
C#|-x-/x---x-/x--x-/x--x-/x--x-\x---x-/x---x\x--x-/x--x-/x--x-/x-|
G#|-10/8---10/6--10/8--11/10-8-\10--10/8---5\6--10/8--11/10-8-/6-|
C#|--------------------------------------------------------------|

D#|---------------------------------------------|
A#|---------------------------------------------|
F#|-12/10--12/8--12/10-13/12-10\12--12/10--7\8~-|
C#|-x-/x---x-/x--x-/x--x-/x--x-\x---x-/x---x\x~-|
G#|-10/8---10/6--10/8--11/10-8-\10--10/8---5\6~-|
C#|---------------------------------------------|


Rhythm
D#|-----------------------------------------------------------------------|
A#|-----------------------------------------------------------------------|
F#|-----------------------------------------------------------------------|
C#|-1-1-----8-8-----6-6-----6-6-----1-1-----8-8-----6-6-----6-6----6~-----|
G#|-1-1-----8-8-----6-6-----6-6-----1-1-----8-8-----6-6-----6-6----6~-----|
C#|-1-1-----8-8-----6-6-----6-6-----1-1-----8-8-----6-6-----6-6----6~-----|


~~~~~~~Verse~~~~~~~

Lead
D#|----------------------------------|
A#|----------------------------------|
F#|-88--88-888--88-888--88-8--8-/10--|
C#|-xx--xx-xxx--xx-xxx--xx-x--x-/x---| x3
G#|-66--66-666--66-666--66-6--6-/8---|
C#|----------------------------------|

D#|-----------------------------------|
A#|-----------------------------------|
F#|-12121210101088--1313131212-8-8/10-|
C#|-x-x-x-x-x-x-xx--x-x-x-x-x--x-x/x--|
G#|-1010108-8-8-66--1111111010-6-6/8--|
C#|-----------------------------------|


Rhythm
D#|---------------------------------------------------------------|
A#|---------------------------------------------------------------|
F#|---------------------------------------------------------------|
C#|-11--11-111--11-111--11-1-6-6----11--11-111--11-111--11-1-6-6--|  x3
G#|-11--11-111--11-111--11-1-6-6----11--11-111--11-111--11-1-6-6--|
C#|-11--11-111--11-111--11-1-6-6----11--11-111--11-111--11-1-6-6--|
        x  x    x  x    x               x  x    x  x    x

D#|----------------------|
A#|----------------------|
F#|-55555555-------------|
C#|-55555555-6666666-/-8-|
G#|-33333333-6666666-/-8-|
C#|----------6666666-/-8-|


~~~~~~~Chorus~~~~~~~

Lead
D#|----------------------------------------------------------|
A#|----------------------------------------------------------|
F#|--8h10--8h10--8888-10101010----8h10---8h10--8888-10101010-|
C#|-8-----8------xxxx-x-x-x-x---8------8-------xxxx-x-x-x-x--|
G#|--------------6666-8-8-8-8------------------6666-6-6-6-6--|
C#|----------------------------------------------------------|

D#|---------------------------------------------------------------|
A#|---------------------------------------------------------------|
F#|-8888-10101010-12121212-13131313----8h10---8h10--8888-10101010-|
C#|-xxxx-x-x-x-x--x-x-x-x--x-x-x-x---8------8-------xxxx-x-x-x-x--|
G#|-6666-8-8-8-8--10101010-11111111-----------------6666-6-6-6-6--|
C#|---------------------------------------------------------------|


Rhythm
D#|-------------------------------------------------------------|
A#|-------------------------------------------------------------|
F#|-------------------------------------------------------------|
C#|-11---55---66666666--11---88---66666666--1111-8888-5555-6666-|
G#|-11---55---66666666--11---88---66666666--1111-8888-5555-6666-|
C#|-11---55---66666666--11---88---66666666--1111-8888-5555-6666-|

D#|--------------------|
A#|--------------------|
F#|--------------------|
C#|-11---55---66666666-|
G#|-11---55---66666666-|
C#|-11---55---66666666-|


~~~~~~~Bridge~~~~~~~

Lead
D#|-----------------------------------------------------------------|
A#|-----------------------------------------------------------------|
F#|-121212-101010-88--121212-101010-88--12-12--1010-15-13-12-10-888-|
C#|-x-x-x--x-x-x--xx--x-x-x--x-x-x--xx--x--x---x-x--x--x--x--x--xxx-|
G#|-101010-8-8-8--66--101010-8-8-8--66--10-10--8-8--13-11-10-8--666-|
C#|-----------------------------------------------------------------|

D#|--------------------------|
A#|--------------------------|
F#|-88888888-88888888--10-10-|
C#|-xxxxxxxx-xxxxxxxx--x--x--|
G#|-66666666-66666666--8--8--|
C#|--------------------------|


Rhythm
D#|-------------------------------------------------------------------|
A#|-------------------------------------------------------------------|
F#|-55555555----------------------------5555--------------------------|
C#|-55555555--66666666--1-1---88888888--5555-55555555-66666666---8-8~-|
G#|-33333333--66666666--1-1---88888888--3333-55555555-66666666---8-8~-|
C#|-----------66666666--1-1---88888888-------55555555-66666666---8-8~-|

~~~~~~~Breakdown~~~~~~~

No riffs, but a couple of palm mutes in rhythm that leads to the 2nd part of the chorus.

----------------------------------------------------------------------------
Extremely fun song, I believe this is the only tab with Jack's riffs for the live 
version. Have fun learning this song!
Suggest correction
What's this?
You can suggest a correction to this tab. Community and Mods will review your correction and vote to approve or reject it.
comments
We did not receive enough feedback on this tab! Please rate:
print report bad tab
1 2 3 4 5
guest
You may want to rate the tab now too:
select rating
Please do not post tabs as comments. Select "correction" instead!