Oops, an error
Loading. Please wait.

A Party Song Tab

version 1
version 1

Whole song

48,572 views 24 this week
10 commentsread comments
1 2 3 4 5
excellent!
x 16
add to favorites
launch autoscroll
font size
0
reset
how to read this tab
guitar tuner
Autoscroll
slow
fast
+/-
esc
set tempo
stop
Help us to improve Ultimate-Guitar.com Take our survey!
×
Author
-------------------------------------------------------------------------------
                A Party Song (The Walk of Shame) - All Time Low                
-------------------------------------------------------------------------------

Tabbed by:    Christopher Airey
Email:        cairey@gmail.com

Here's my tab for A Party Song (The Walk of Shame)

Tunings:

Guitar 1: Drop-D
Guitar 2: Standard/Drop-D
Guitar 3: Standard/Drop-D

[Intro/Refrain]

Lyrics:

| Oh-oh, oh-oh, oh-oh o-o-oh-oh
| Oh-oh, oh-oh, oh-oh o-o-oh-oh

Guitar 1:

e|------------------------------------------------------------------------|
B|------------------------------------------------------------------------|
G|------------------------------------------------------------------------|
D|-1-1-----8-8-----6-6-----6-6-----1-1-----8-8-----6-6-----6-6----6/8-----|
A|-1-1-----8-8-----6-6-----6-6-----1-1-----8-8-----6-6-----6-6----6/8-----|
D|-1-1-----8-8-----6-6-----6-6-----1-1-----8-8-----6-6-----6-6----6/8-----|

Guitar 2:

e|------------------------------------------------------------------------|
B|-8-----8-----8---9-8----8---8---------8---9-8---------------------------|
G|---10----8-----8-----10-------10--7-8---8-----10-8----------------------|
D|------------------------------------------------------------------------|
A|------------------------------------------------------------------------|
D|------------------------------------------------------------------------|

| Oh-oh, oh-oh, oh-oh o-o-oh-oh
| Oh-oh, oh-oh, oh-oh

Guitar 1:

e|------------------------------------------------------------------------|
B|------------------------------------------------------------------------|
G|------------------------------------------------------------------------|
D|-1-1-----8-8-----6-6-----6-6-----1-1-----8-8-----6----------------------|
A|-1-1-----8-8-----6-6-----6-6-----1-1-----8-8-----6----------------------|
D|-1-1-----8-8-----6-6-----6-6-----1-1-----8-8-----6----------------------|

Guitar 2:

e|------------------------------------------------------------------------|
B|-8-----8-----8---9-8----8---8-------------------------------------------|
G|---10----8-----8-----10-------10--7-8-----------------------------------|
D|------------------------------------------------------------------------|
A|------------------------------------------------------------------------|
D|------------------------------------------------------------------------|

[Verse 1]

| I took a walk for the very first time on the dark side of the dance floor.
| Lit a match just to heat things up, but I got more than I bargained for:

Guitar 1:

e|------------------------------------------------------------------------|
B|------------------------------------------------------------------------|
G|------------------------------------------------------------------------|
D|-1-1--1-111--1-111--1-1--6-6---1-1--1-111--1-111--1-1--6-6--------------|
A|-1-1--1-111--1-111--1-1--6-6---1-1--1-111--1-111--1-1--6-6--------------|
D|-1-1--1-111--1-111--1-1--6-6---1-1--1-111--1-111--1-1--6-6--------------|

| Mixed drinks, mixed feelings of elation. I should have know it was a 
| one-night invitation.

Guitar 1:

e|------------------------------------------------------------------------|
B|------------------------------------------------------------------------|
G|--------------------------------55555555--------------------------------|
D|-1-1--1-111--1-111--1-1--6-6----55555555-6666666-/-8--------------------|
A|-1-1--1-111--1-111--1-1--6-6----33333333-6666666-/-8--------------------|
D|-1-1--1-111--1-111--1-1--6-6-------------6666666-/-8--------------------|

Guitar 2:

e|------------------------------------------------------------------------|
B|---------------------------------9---11-1111111111111111-99999999-------|
G|-----------------------------------8----8-8-8-8-8-8-8-8--88888888-------|
D|------------------------------------------------------------------------|
A|------------------------------------------------------------------------|
D|------------------------------------------------------------------------|

Guitar 3:

e|------------------------------------------------------------------------|
B|------------------------------------------------8----9-8----------------|
G|---------------------------------------------10---8------10-8-----------|
D|------------------------------------------------------------------------|
A|------------------------------------------------------------------------|
D|------------------------------------------------------------------------|


[Chorus]

| Don't sweat it, forget it, everything is a-ok. Just let it go then it's
| off to find another face. I make you come just to watch you leave.
| You walk around with my heart on your sleeve.

Guitar 1:

e|------------------------------------------------------------------------|
B|------------------------------------------------------------------------|
G|------------------------------------------------------------------------|
D|-1-1---5-5---66666666--1-1---8-8---66666666--1111-8888-5555-6666--------|
A|-1-1---5-5---66666666--1-1---8-8---66666666--1111-8888-5555-6666--------|
D|-1-1---5-5---66666666--1-1---8-8---66666666--1111-8888-5555-6666--------|

Guitar 2:

e|-------------88888888--------------88888888-----------------------------|
B|-------------99999999--------------99999999------11-8---8-8-9--11-------|
G|--10p8--10p8------------10p8--10p8-----------8888----10--8---10---------|
D|-8-----8---------------8-----8------------------------------------------|
A|------------------------------------------------------------------------|
D|------------------------------------------------------------------------|

| Don't sweat it. It's over now. Our time ran out.

Guitar 1:

e|------------------------------------------------------------------------|
B|------------------------------------------------------------------------|
G|-5-5--------------------------------------------------------------------|
D|-5-5--5-5--66666666-----------------------------------------------------|
A|-3-3--5-5--66666666-----------------------------------------------------|
D|------5-5--66666666-----------------------------------------------------|

Guitar 2:

e|-----------88888888-----------------------------------------------------|
B|-----------99999999-----------------------------------------------------|
G|--10p8--8---------------------------------------------------------------|
D|-8-----8----------------------------------------------------------------|
A|------------------------------------------------------------------------|
D|------------------------------------------------------------------------|


[Refrain]

| Oh-oh, oh-oh, oh-oh o-o-oh-oh
| Oh-oh, oh-oh, oh-oh

Guitar 1:

e|------------------------------------------------------------------------|
B|------------------------------------------------------------------------|
G|------------------------------------------------------------------------|
D|-1-1-----8-8-----6-6-----6-6-----1-1-----8-8-----6----------------------|
A|-1-1-----8-8-----6-6-----6-6-----1-1-----8-8-----6----------------------|
D|-1-1-----8-8-----6-6-----6-6-----1-1-----8-8-----6----------------------|

Guitar 2:

e|------------------------------------------------------------------------|
B|-8-----8-----8---9-8----8---8-------------------------------------------|
G|---10----8-----8-----10-------10--7-8-----------------------------------|
D|------------------------------------------------------------------------|
A|------------------------------------------------------------------------|
D|------------------------------------------------------------------------|


[Verse 2]

| I took an oath, but I'm giving up. You didn't have to see things my way.
| Nothing more than a casual fuck--isn't that just how we operate?

Guitar 1:

e|------------------------------------------------------------------------|
B|------------------------------------------------------------------------|
G|------------------------------------------------------------------------|
D|-1-1--1-111--1-111--1-1--6-6---1-1--1-111--1-111--1-1--6-6--------------|
A|-1-1--1-111--1-111--1-1--6-6---1-1--1-111--1-111--1-1--6-6--------------|
D|-1-1--1-111--1-111--1-1--6-6---1-1--1-111--1-111--1-1--6-6--------------|

| Let's drink to the feelings of temptation. You and I, we're an 
| over-night sensation.

Guitar 1:

e|------------------------------------------------------------------------|
B|------------------------------------------------------------------------|
G|--------------------------------55555555--------------------------------|
D|-1-1--1-111--1-111--1-1--6-6----55555555-6666666-/-8--------------------|
A|-1-1--1-111--1-111--1-1--6-6----33333333-6666666-/-8--------------------|
D|-1-1--1-111--1-111--1-1--6-6-------------6666666-/-8--------------------|

Guitar 2:

e|------------------------------------------------------------------------|
B|---------------------------------9---11-1111111111111111-99999999-------|
G|-----------------------------------8----8-8-8-8-8-8-8-8--88888888-------|
D|------------------------------------------------------------------------|
A|------------------------------------------------------------------------|
D|------------------------------------------------------------------------|

Guitar 3:

e|------------------------------------------------------------------------|
B|------------------------------------------------8----9-8----------------|
G|---------------------------------------------10---8------10-8-----------|
D|------------------------------------------------------------------------|
A|------------------------------------------------------------------------|
D|------------------------------------------------------------------------|


[Repeat Chorus]


[Bridge]

| Outside, the brake lights started to dim. I feel tension that's been
| pulling us in. And then we do it again so we can feel alright, falling
| in love for the might.

Guitar 1:

e|------------------------------------------------------------------------|
B|------------------------------------------------------------------------|
G|-55555555-----------------------------5555------------------------------|
D|-55555555--66666666--1--1---88888888--5555-55555555-66666666---8-8------|
A|-33333333--66666666--1--1---88888888--3333-55555555-66666666---8-8------|
D|-----------66666666--1--1---88888888-------55555555-66666666---8-8------|

Guitar 2:

e|------------------------------------------------------------------------|
B|------------------------------------------------------------------------|
G|---------------------3--3------3---------------3-5----------------------|
D|-1-1-1-1-0-1-1-1-1-3------6-5---6-5-3--1-1-1-5-----3-6-5-3-1-6531-11-33-|
A|-----------------------------------------------------------------3------|
D|------------------------------------------------------------------------|


[Partial Chorus]

Gang Lyrics:

| Don't sweat it, forget it, everything is a-ok. Just let it go then it's
| off to find another face.

 |------------------------------------------------------------------------|


| I make you come just to watch you leave.
| You walk around with my heart on your sleeve.

Guitar 1:

e|------------------------------------------------------------------------|
B|------------------------------------------------------------------------|
G|-----------------------5-5----------------------------------------------|
D|-1111-8888-5555-6666---5-5--5-5--66666666-------------------------------|
A|-1111-8888-5555-6666---3-3--5-5--66666666-------------------------------|
D|-1111-8888-5555-6666--------5-5--66666666-------------------------------|

Guitar 2:

e|---------------------------------88888888-------------------------------|
B|-----11-8---8-8-9--11------------99999999-------------------------------|
G|-8888----10--8---10-----10p8--8-----------------------------------------|
D|-----------------------8-----8------------------------------------------|
A|------------------------------------------------------------------------|
D|------------------------------------------------------------------------|


[Repeat Refrain]


[end]
Suggest correction
comments
print report bad tab
10 comments total. Showing first comments.
+1 reply
n.q.n 10 wrote on July 4 2009, 02:28 am

great tab!

can you please tab "break your little heart" by all time low, a song on their new album

+1 reply
JessicaGonzo 211 wrote on July 4 2009, 04:40 am

sick tab!

+2 reply
aireyc 124 wrote on July 5 2009, 03:03 pm

I'm going to try to work on the entire album over the next week or so.

guest
You may want to rate the tab now too:
select rating
Wanna post a correction for this tab? Suggest correction