Oops, an error
Loading. Please wait.

A Party Song Bass Tab

version 2
version 2

Whole song

863 views 3 this week
no commentswrite comment
1 2 3 4 5
3 more votes to show rating
add to favorites
launch autoscroll
font size
0
reset
guitar tuner
Autoscroll
slow
fast
+/-
esc
set tempo
stop
Help us to improve Ultimate-Guitar.com Take our survey!
×
Author
Difficulty
Tuning
novice
D A D G B E
A PARTY SONG - ALL TIME LOW

INTRO

G|---------------------------------------------------|
D|---------------------------------------------------|
A|00----77----55----55----00----77----55----55----5/7|
D|---------------------------------------------------|

G|----------------------------------------|
D|----------------------------------------|
A|00----77----55----55----00----77----5/13|
D|----------------------------------------|

VERSE

G|------------------------------------------------------------|
D|------------------------------------------------------------|
A|-------------------------5-5---------------------------55---|
D|-5-5--5-555--5-555--5-5--------5-5--5-555--5-555--5-5-------|

G|-------------------------------------------------------|
D|-------------------------------------------------------|
A|-------------------------5-5----99999999-5555555/7-----|
D|-5-5--5-555--5-555--5-5--------------------------------|

CHORUS

G|-------------------------------------------------------------|
D|-------------------------------------------------------------|
A|------44--55555555-------77---55555555-------7777-4444-5555--|
D|-55-----------------55------------------5555-----------------|

G|----------------------|
D|----------------------|
A|-9-9--44--55555555----|
D|----------------------|

POST CHORUS

G|----------------------------------------------|
D|----------------------------------------------|
A|0-0----7-7----5-5----5-5----0-0----7-7----5~--|
D|----------------------------------------------|

VERSE

G|------------------------------------------------------------|
D|------------------------------------------------------------|
A|-------------------------5-5---------------------------55---|
D|-5-5--5-555--5-555--5-5--------5-5--5-555--5-555--5-5-------|

G|-------------------------------------------------------|
D|-------------------------------------------------------|
A|-------------------------5-5----99999999-5555555/7-----|
D|-5-5--5-555--5-555--5-5--------------------------------|

CHORUS

G|-------------------------------------------------------------|
D|-------------------------------------------------------------|
A|------44--55555555-------77---55555555-------7777-4444-5555--|
D|-55-----------------55------------------5555-----------------|

G|----------------------|
D|----------------------|
A|-9-9--44--55555555----|
D|----------------------|

BRIDGE

G|-------------------------------------------------------------------|
D|-------------------------------------------------------------------|
A|-99999999--55555555--0--0---77777777--9999-44444444-55555555---7-7-|
D|-------------------------------------------------------------------|

BREAK (NO BASS)


BRIDGE (CONT.)

G|--------------------------------------------|
D|--------------------------------------------|
A|------7777-4444-5555---9-9--4-4--55555555---|
D|-5555---------------------------------------|

OUTRO

G|--------------------------------------------------------------|
D|--------------------------------------------------------------|
A|0-0----7-7----5-5----5-5----0-0----7-7----5-5----5-5----5h7---|
D|--------------------------------------------------------------|

G|----------------------------------------------|
D|----------------------------------------------|
A|0-0----7-7----5-5----5-5----0-0----7-7----5~~~|
D|----------------------------------------------|

ryansefHK4$
Suggest correction
Give kudos to tab author, rate the tab!
1 2 3 4 5
comments
print report bad tab
guest
You may want to rate the tab now too:
select rating
Wanna post a correction for this tab? Suggest correction