Oops, an error
Loading. Please wait.

Actors Ukulele Chords

version 1
version 1

Whole song

Interactive

309 views 1 this week
no commentswrite comment
1 2 3 4 5
3 more votes to show rating
add to favorites
launch autoscroll
font size
0
reset
transpose
0
reset
display chords
guitar tuner
Autoscroll
slow
fast
+/-
esc
set tempo
stop
Help us to improve Ultimate-Guitar.com Take our survey!
×
-----------------------------------------------------------------------------
                             Actors - All Time Low
-----------------------------------------------------------------------------
Tabbed by:Kssmycnvrs

Tuning:Drop D

Intro
e|-----------------------------------------------------------------------------|
B|-----------------------------------------------------------------------------|
G|-----------------------------------------------------------------------------|
D|-----------------------------------------------------------------------------|
A|-9-9-9-12-12-12-9-9-9-12-12-12-9-9-12-12-10-10-10-9-9-9-5-5-7-7-7-7-7-7-7-7--|
E|-----------------------------------------------------------------------------|

Verse 1
Jack
e|--------------------------------------------------------------------------|
B|--------------------------------------------------------------------------|
G|-7-----6---------------------------------7--6-----------------------------|
D|-7(x8)-7-(x8)-9--------5--------7--------7--7--9--5--7--------------------|
A|--------------9-(x16)--5-(x16)--7-(x16)--------9--5--7--------------------|
E|--------------------------------------------------------------------------|
   x     x      x        x        x

Alex(comes in after jack palm mutes)
e|--------------------------------------------------------------------------|
B|--------------------------------------------------------------------------|
G|--------------------------------------------------------------------------|
D|-7-7--9--7--5-------------------------------------------------------------|
A|-5-4--9--7--5-------------------------------------------------------------|
E|------9--7--5-------------------------------------------------------------|
   x x  x  x  x
Pre-Chorus
e|---------------------------------------------------xx--xx-----------------|
B|---------------------------------------------------xx--xx-----------------|
G|-----7~------7~--6~------7~-----7~--6~----6~-------xx--xx-----------------|
D|-5~--7~--7~--7~--7~--5~--7~--7~-7~--7~-5--7~-------xx--xx-----------------|
A|-5~--5~--7~--5~--4~--5~--5~--7~-5~--4~-5--4~-------xx--xx-----------------|
E|-5~------7~----------5~------7~--------5-----------xx--xx-----------------|
                                         X
Chorus              (oh,oh,oh,oh)                             or
e|------------------|---------|--------------------------|---|--------------|
B|------------------|---------|--------------------------|---|--------------|
G|-7----------------|-9-7-----|-7------------------------|---|-4--6--7------|
D|-7--7--5--9--7--5-|-x-x-(x4)|-7--7--5--9--7--5--9~--7~-|5~-|-x--x--x------|
A|-5--7--5--9--7--5-|-7-5-----|-5--7--5--9--7--5--9~--7~-|5~-|-2--4--5------|
E|----7--5--9--7--5-|---------|----7--5--9--7--5--9~--7~-|5~-|--------------|

Pre-Verse:same as Intro

Verse 2
Jack
e|--------------------------------------------------------------------------|
B|--------------------------------------------------------------------------|
G|-7--6---------------------------------------------------------------------|
D|-7--7--9--5--7------------------------------------------------------------|
A|-5--4--9--5--7------------------------------------------------------------|
E|-------9--5--7------------------------------------------------------------|
   x  x  x  x  x

Alex
e|--------------------------------------------------------------------------|
B|--------------------------------------------------------------------------|
G|-77-77-66-66--------------------------------------------------------------|
D|-77-77-77-77-99-99-99-99-55-55-55-55-77-77-77-77--------------------------|
A|-55-55-44-44-99-99-99-99-55-55-55-55-77-77-77-77--------------------------|
E|-------------99-99-99-99-55-55-55-55-77-77-77-77--------------------------|


Pre-Chorus again.


Chorus:palm mute last 5's

Bridge

Jack
e|--------------------------------------------------------------------------|
B|--------------------------------------------------------------------------|
G|-14--16--19--18--14--16--19--18-------------------------------------------|
D|-x---x---x---x---x---x---x---x--------------------------------------------|
A|-12--14--17--16--12--14--17--16-------------------------------------------|
E|--------------------------------------------------------------------------|

Alex
e|--------------------------------------------------------------------------|
B|--------------------------------------------------------------------------|
G|-------7--6--------7--6---------------------------------------------------|
D|-7--9--7--7--7--9--7--7---------*9----------------------------------------|
A|-7--9--5--4--7--9--5--4--5~--4~-------------------------------------------|
E|-7--9--------7--9---------------------------------------------------------|

Then Chorus again. sort of different. you can figure it out.

Outro

e|--------------------------------------------------------------------------|
B|--------------------------------------------------------------------------|
G|--------------------------------------------------------------------------|
D|--------------------------------------------------------------------------|
A|-9-9-9-12-12-12-9-9-9-12-12-12-9-9-12-12-10-10-10-9-9-9-5~----------------|
E|--------------------------------------------------------------------------|

I learned this as soon as i heard this eargasm lol. Cant wait for new album!

************************************

| /   slide up
| \   slide down
| h   hammer-on
| p   pull-off
| ~   vibrato
| +   harmonic
| x   Mute note
| b   Bend
| pb  Pre-bend
| br  Bend release
| pbr Pre-bend release
| brb Bend release bend

************************************
Suggest correction
Give kudos to tab author, rate the tab!
1 2 3 4 5
comments
print report bad tab
guest
You may want to rate the tab now too:
select rating
Wanna post a correction for this tab? Suggest correction