Oops, an error
Loading. Please wait.

Alejandro Tab

13,785 views 3 this week
1 commentread comment
1 2 3 4 5
please rate
add to favorites
launch autoscroll
font size
0
reset
how to read this tab
guitar tuner
Tab Pro tools
  • play this tab
  • loop segment
  • change instrument
  • show fretboard
  • metronome
×
Best way to learn
"Alejandro"
Autoscroll
slow
fast
+/-
esc
set tempo
stop
Contributor
Difficulty
Tuning
novice
D A D G B E
                           Alejandro - All Time Low

Email: vana304@hotmail.com (for any questions only)! :)

Something I learnt by ear but it's not exactly how All Time Low played it at the Live 
but this sounds similar (:
This is my first tab that I've done so it may not be perfect!
You can check out my video of me playing it for the strumming etc. (:
http://www.youtube.com/watch?v=NjclyF7_1u8

The strumming that I've written on the tab may not be exact, just listen to the song and 
get it! It's not that difficult! :D

Tuning: DAGDAD

Intro:
'Oh, oh...' - palm mute for each chord (strum up)
d|---------------------------|
A|---------------------------|
G|-7-7----7-7----9-9-9-9-----|
D|-5-5----0-0----7-7-7-7-----|
A|-5-5----0-0----7-7-7-7-----|
D|-5-5----0-0----7-7-7-7-----|   x2

For the 2nd time on the last chord, strum 3 times


Verse 1:
'She's got both hands...'
d|------------------------------|
A|------------------------------|
G|-7~-----6~-----7---11--9------|
D|-5~-----4~-----5---9---7------|
A|-5~-----4~-----5---9---7------|
D|-5~-----4~-----5---9---7------|   x2

After that strum a few times on the last chord and then go into pre-chorus


Pre-Chorus:
'You know that I love you boy...' (Strumming is something like DDDUD)
d|-----------------------------------------------|
A|-----------------------------------------------|
G|-7-7-7-7-7-----7-7-7-7-7-----9-9-9-9-9-9-9-9---|
D|-5-5-5-5-5-----0-0-0-0-0-----7-7-7-7-7-7-7-7---|
A|-5-5-5-5-5-----0-0-0-0-0-----7-7-7-7-7-7-7-7---|
D|-5-5-5-5-5-----0-0-0-0-0-----7-7-7-7-7-7-7-7---|

d|-----------------------------------------------|
A|-----------------------------------------------|
G|-7-7-7-7-7-----7-7-7-7-7-----9-9-9-9-9---------|
D|-5-5-5-5-5-----0-0-0-0-0-----7-7-7-7-7---------|
A|-5-5-5-5-5-----0-0-0-0-0-----7-7-7-7-7---------|<-strum down for last chord
D|-5-5-5-5-5-----0-0-0-0-0-----7-7-7-7-7---------|

Palm mute at the end then go into chorus

Chorus:
'Don't call my name...'
d|-----------------------------------------------------------|
A|-----------------------------------------------------------|
G|-7-7-7-7-7-----7-7-7-7-7-----9-9-9-9-9-----11-11-11-11-11--|
D|-5-5-5-5-5-----0-0-0-0-0-----7-7-7-7-7-----9--9--9--9--9---|
A|-5-5-5-5-5-----0-0-0-0-0-----7-7-7-7-7-----9--9--9--9--9---|
D|-5-5-5-5-5-----0-0-0-0-0-----7-7-7-7-7-----9--9--9--9--9---|   x4

For the last time on the last chord, strum down once then palm mute

'Alejandro...'
d|-----------------------------------------------------------|
A|-----------------------------------------------------------|
G|-7-7-7-7-7-----7-7-7-7-7-----9-9-9-9-9-----11-11-11-11-11--|
D|-5-5-5-5-5-----0-0-0-0-0-----7-7-7-7-7-----9--9--9--9--9---|
A|-5-5-5-5-5-----0-0-0-0-0-----7-7-7-7-7-----9--9--9--9--9---|
D|-5-5-5-5-5-----0-0-0-0-0-----7-7-7-7-7-----9--9--9--9--9---|   x2


Verse 2:
'And she's not broken...'
It's similar to the INTRO with the same palm muting etc.
But the first time you do it, strum 3 times only for last chord then palm mute
d|---------------------------|
A|---------------------------|
G|-7-7----7-7----9-9-9-9-----|
D|-5-5----0-0----7-7-7-7-----|
A|-5-5----0-0----7-7-7-7-----|
D|-5-5----0-0----7-7-7-7-----|   x7

For the last time on the last chord strum up and down


Repeat CHORUS incl. 'Alejandro...' part:
d|-----------------------------------------------------------|
A|-----------------------------------------------------------|
G|-7-7-7-7-7-----7-7-7-7-7-----9-9-9-9-9-----11-11-11-11-11--|
D|-5-5-5-5-5-----0-0-0-0-0-----7-7-7-7-7-----9--9--9--9--9---|
A|-5-5-5-5-5-----0-0-0-0-0-----7-7-7-7-7-----9--9--9--9--9---|
D|-5-5-5-5-5-----0-0-0-0-0-----7-7-7-7-7-----9--9--9--9--9---|   x8


Slow part of the chorus? Bridge? :P
'Don't call my name...'
d|-----------------------------|
A|-----------------------------|
G|-7~-------7~-------9~--------|
D|-5~-------0~-------7~--------|
A|-5~-------0~-------7~--------|
D|-5~-------0~-------7~--------|   x4

For the last time on the last chord, strum down 5 times (let it ring)


Repeat CHORUS incl. 'Alejandro...' part:
d|-----------------------------------------------------------|
A|-----------------------------------------------------------|
G|-7-7-7-7-7-----7-7-7-7-7-----9-9-9-9-9-----11-11-11-11-11--|
D|-5-5-5-5-5-----0-0-0-0-0-----7-7-7-7-7-----9--9--9--9--9---|
A|-5-5-5-5-5-----0-0-0-0-0-----7-7-7-7-7-----9--9--9--9--9---|
D|-5-5-5-5-5-----0-0-0-0-0-----7-7-7-7-7-----9--9--9--9--9---|   x8


Finish on:
d|-----|
A|-----|
G|--7--|
D|--5--|
A|--5--|
D|--5--|
comments
We did not receive enough feedback on this tab! Please rate:
print report bad tab
1 2 3 4 5
1 comment total.
0 reply
ultralisk500 wrote on April 19 2011, 03:55 pm

perfection

I want to post or [tab]
guest
You may want to rate the tab now too:
select rating
Please do not post tabs as comments. Select "correction" instead!