Oops, an error
Loading. Please wait.

Backseat Serenade Chords

version 1
version 1

Acoustic

Interactive

45,252 views 120 this week
2 commentsread comments
1 2 3 4 5
excellent!
x 15
add to favorites
launch autoscroll
font size
0
reset
transpose
0
reset
simplify chords
display chords
guitar tuner
Autoscroll
slow
fast
+/-
esc
set tempo
stop
Help us to improve Ultimate-Guitar.com Take our survey!
×
Author
Difficulty
Tuning
novice
D G C F A D
This is my first tab, so sorry if the words/chords are wrong, hope you like it  

Tuning 

D#,G#,C#,F#,A#,D#
      
 F bar chord    =  D#|-1-----------|
                   A#|-1-----------|
                   F#|-1---2-------|
                   C#|-1------3----|
                   G#|-1------3----|
                   D#|-1-----------|


[INTRO] G , Dm , C , Em , F ,C


[Verse 1]

G        
Lazy lover
       Dm        
Find a place for me again
    C
You felt it once before
           Em 
I know you did
  F          C
I could see it

G
Whiskey Princess
            Dm
Drink me under, pull me in
      C                     
You had me at come over boy
    Em
I need a friend
  F        C
I understand


[INSTRUMENTAL]  D


[Chorus]

          Em7
Backseat serenade
      Cadd9
Dizzy hurricane
   G                           D
Oh god, I'm sick of sleeping alone
                      Em7
You're salty like a summer day
              G
Kiss the sweat away
         D
To your radio

         Em7
Backseat serenade
        Cadd9
Little hand grenade
   G                         D
Oh god, I'm sick of sleeping alone
                     Em7
You're salty like a summer day
          G
Kiss the pain away
         D
To your radio


[INSTRUMENTAL] Cadd9


[Verse 2]

G
You take me over
            Dm
I throw you up against the wall
        C
We've seen it all before
                 Em
But this one's different
     F       C
It's deliberate

G
You send me reeling
         Dm
Calling out to you for more
     C                              Em
The value of this moment lives in metaphor
      F            C
Yeah, through it all


[INSTRUMENTAL]  D


[Chorus]

         Em7
Backseat serenade
      Cadd9
Dizzy hurricane
    G                         D
Oh god, I'm sick of sleeping alone
                        Em7
You're salty like a summer day
                G
Kiss the sweat away
           D
To your radio

         Em7
Backseat serenade
        Cadd9
Little hand grenade
   G                          D
Oh god, I'm sick of sleeping alone
                     Em7
You're salty like a summer day
                G
Kiss the pain away
            D
To your radio


[INSTRUMENTAL]

d#|-----------------------------------------------------------|
A#|--------0--------0-----------------------------------------|
F#|-----------------------0-----0-----0------0------0------0--|
C#|-----5--------5------7-----7-----9------9------4------4----|X2
G#|--3--------3-------5-----5-----7------7------2------2------|
D#|-----------------------------------------------------------|

d#|-----------------------------------------------------|
A#|---0-----------------------------------0-------------|
F#|-------------0--------0-------0--------------0-------|
C#|---5---------7--------9-------4--------5-----7-------|
G#|---3---------5--------7-------2--------3-----5-------|
D#|-----------------------------------------------------|
           
 If the tabs are too hard just play: Em7 , cadd9 , G , D , Em7, cadd9

         Em7
Backseat serenade
       Cadd9
Dizzy hurricane
   G                         D
Oh god, I'm sick of sleeping alone
                     Em7
You're salty like a summer day
                G
Kiss the sweat away
          D
To your radio

           Em7
Backseat serenade
        Cadd9
Little hand grenade

   G                          D
Oh god, I'm sick of sleeping alone
                    Em7
You're salty like a summer day
                G
Kiss the pain away
         D
To your radio

[Outro] Em7 ,Cadd9 , D
Suggest correction
comments
print report bad tab
2 comments total.
0 reply
Em_AllTimeLow 10 wrote on July 29 2013, 12:36 pm

All Dm and D chords are D/F# or Dm/F#

That's how Alex played it when he did the acoustic for Glamour Kills.

Also the tab is:

d#|------------------------------------------------------------|
A#|------------------------------------------------------------|
F#|--------4--------4------0-----0-----0------0------0------0--|
C#|-----5--------5------7-----7-----9------9------4------4-----|X2
G#|--3--------3-------5-----5-----7------7------2------2-------|
D#|------------------------------------------------------------|

d#|-------------------------------------------------------------|
A#|-----------------------------------0------0------------------|
F#|--------4--------4-----0-----0-------------------0------0----|
C#|-----5--------5------7-----7-----9------9------4------4------|X2
G#|--3--------3-------5-----5-----7------7------2------2--------|
D#|-------------------------------------------------------------|

d#|-----------------------------------------------------|
A#|-----------------------------------------------------|
F#|---4---------0--------0-------0--------4-----0-------|
C#|---5---------7--------9-------4--------5-----7-------|
G#|---3---------5--------7-------2--------3-----5-------|
D#|-----------------------------------------------------|

Again, how Alex played it

0 reply
Jess1DBYE 42 wrote on November 16 2013, 12:29 pm

Actually, I'm pretty sure that the Dm is correct, & the D also sounds right although it does look like he's playing D/F# so I'm not sure about that one :)

guest
You may want to rate the tab now too:
select rating
Please do not post tabs as comments. Select "correction" instead!