Oops, an error
Loading. Please wait.

Backseat Serenade Tab

version 2
version 2

Acoustic

Whole song

Interactive

21,269 views 36 this week
6 commentsread comments
1 2 3 4 5
x 25
add to favorites
launch autoscroll
font size
0
reset
how to read this tab
guitar tuner
Autoscroll
slow
fast
+/-
esc
set tempo
stop
Help us to improve Ultimate-Guitar.com Take our survey!
×
Author
Difficulty
Tuning
novice
D G C F A D
Backseat Serenade (Acoustic) - All Time Low

I tabbed this from ear. It is based off the acoustic track from “Dont 
Panic! It's Longer Now!” The strumming pattern is pretty easy to figure out.

Thanks for checking out the tab. Please leave comments and a rating!

Tabbed by: Scrumtrillescen
Correction by: deathpony43

Tuning: D Tuning (D-G-C-F-A-D)

                                     CHORDS
                    Em            C            G            D
e|-------------------0------------3------------3------------2----------------|
B|-------------------0------------3------------3------------3----------------|
G|-------------------0------------0------------0------------2----------------|
D|-------------------2------------2------------0------------0----------------|
A|-------------------2------------3------------2------------x----------------|
E|-------------------0------------x------------3------------x----------------|


[Intro/Verse]
e|---------------------------------------------------------------------------|
B|---------------------------------------------------------------------------|
G|-----0---0-------0---0-------2---2-----2---2-----0---0-----0---0-----------|
D|----0---0-0-----0---0-0-----3---3-3---3---3-3---2---2-2---2---2-2----------|
A|---------------------------5---5-----5---5-----3---3-----3---3-------------|
E|---3---3------3---3--------------------------------------------------------|

e|------------------------------------------|--------------------------------|
B|------------------------------------------|--------------------------------|
G|------------------------------------------|---0---0----0-------------------|
D|-----2---2-----3---2---------(x2)---------|--4---4-4---4-(x8)--------------|
A|----2---2-2---3-3-3-3---------------------|-5---5------5-------------------|
E|---0---0-----1---0------------------------|--------------------------------|

[Chorus]
           Em                C              G                  D    
        Backseat serenade, dizzy hurricane, oh god, I'm sick of sleeping alone
        
                  Em                         C                    
        You're salty like a summer day, kiss the sweat away

          To your radio
e|2---2---2-2---3---2---0---2---|
B|3---3---3-3---3---3---3---3---|
G|2---2---2-2---2---2---2---2---|
D|0---0---0-0---0---0---0---0---|
A|------------------------------|
E|------------------------------|

             Em                       C                 G                 D
        Backseat serenade, little hand grenade, oh god, I'm sick of sleeping alone

                           Em                      C                
        You're salty like a summer day, kiss the pain away

          To your radio
e|2---2---2-2---3---2---0---2---|
B|3---3---3-3---3---3---3---3---|
G|2---2---2-2---2---2---2---2---|
D|0---0---0-0---0---0---0---0---|
A|------------------------------|
E|------------------------------|

(Post Chorus)
e|-------------------3~----------|
B|-------------------3~----------|
G|-----------0~------0~----------|
D|-----------2~------2~----------|
A|-----------3~------3~----------|
E|-----------x~------x~----------|


[Verse]
e|---------------------------------------------------------------------------|
B|---------------------------------------------------------------------------|
G|-----0----0------0---0-------2---2-----2---2-------0---0-----0---0---------|
D|----0----0-0----0---0-0-----3---3-3---3---3-3-----2---2-2---2---2-2--------|
A|---------------------------5---5-----5---5-------3---3-----3---3-----------|
E|---3----3------3---3-------------------------------------------------------|

e|------------------------------------------|--------------------------------|
B|------------------------------------------|--------------------------------|
G|------------------------------------------|---0---0----0-------------------|
D|-----2---2-----3---2---------(x2)---------|--4---4-4---4-(x8)--------------|
A|----2---2-2---3-3-3-3---------------------|-5---5------5-------------------|
E|---0---0-----1---0------------------------|--------------------------------|

[Chorus]
           Em                C              G                  D    
        Backseat serenade, dizzy hurricane, oh god, I'm sick of sleeping alone
        
                  Em                         C                     
        You're salty like a summer day, kiss the sweat away


e|2---2---2-2---3---2---0---2---|
B|3---3---3-3---3---3---3---3---|
G|2---2---2-2---2---2---2---2---|
D|0---0---0-0---0---0---0---0---|
A|------------------------------|
E|------------------------------|

             Em                       C                 G                 D
        Backseat serenade, little hand grenade, oh god, I'm sick of sleeping alone

                           Em                      C                
        You're salty like a summer day, kiss the pain away

          To your radio
e|2---2---2-2---3---2---0---2---|
B|3---3---3-3---3---3---3---3---|
G|2---2---2-2---2---2---2---2---|
D|0---0---0-0---0---0---0---0---|
A|------------------------------|
E|------------------------------|

[Bridge]
e|---------------------------------------------------------------------------|
B|---------------------------------------------------------------------------|
G|-----0----0-------0----0-------0----0-------0----0-------------------------|
D|----2----2-2-----4----4-4-----5----5-5-----0----0-0------------(x2)--------|
A|---3----3-------5----5-------7----7-------2----2---------------------------|
E|---------------------------------------------------------------------------|

e|---------------------|
B|---------------------|
G|-----0---0------0~---|
D|----2---2-2----4~----|
A|---3---3------5~-----|
E|---------------------|

[Chorus]
           Em                C              G                  D    
        Backseat serenade, dizzy hurricane, oh god, I'm sick of sleeping alone
        
                  Em                         C                     
        You're salty like a summer day, kiss the sweat away

          To your radio
e|2---2---2-2---3---2---0---2---|
B|3---3---3-3---3---3---3---3---|
G|2---2---2-2---2---2---2---2---|
D|0---0---0-0---0---0---0---0---|
A|------------------------------|
E|------------------------------|

             Em                       C                 G                 D
        Backseat serenade, little hand grenade, oh god, I'm sick of sleeping alone

                           Em                      C                
        You're salty like a summer day, kiss the pain away

          To your radio
e|2---2---2-2---3---2---0---2---|
B|3---3---3-3---3---3---3---3---|
G|2---2---2-2---2---2---2---2---|
D|0---0---0-0---0---0---0---0---|
A|------------------------------|
E|------------------------------|

        
                                Em                                      C
 
         D
        Whoa



************************************

| x  Dead note
| ~  Vibrato

************************************
Suggest correction
comments
print report bad tab
6 comments total. Showing first comments.
+1 reply
victor2697 10 Oct 20, 2013 11:47 AM

This sounds pretty right to me, 5 stars

0 reply
deathpony43 21 Oct 20, 2013 11:00 PM

On the D chord played on "to your radio" this should be played:

e|2---2---2-2---3---2---0---2---|
B|3---3---3-3---3---3---3---3---|
G|2---2---2-2---2---2---2---2---|
D|0---0---0-0---0---0---0---0---|
A|------------------------------|
E|------------------------------|

Otherwise, amazing tab! Thank you for making it! I heard this version and I just had to learn it and I couldn't have done it without you! The rest sounds great! 5 stars!

0 reply
Scrumtrillescen 73 Oct 22, 2013 05:43 PM

Thanks for that! I thought I heard something there but wasn't sure. Glad I could help! :)

guest
You may want to rate the tab now too:
select rating
Wanna post a correction for this tab? Suggest correction