Oops, an error
Loading. Please wait.

Backseat Serenade Bass

version 1
version 1

Whole song

Interactive

12,581 views 9 this week
2 commentsread comments
1 2 3 4 5
x 8
add to favorites
launch autoscroll
font size
0
reset
guitar tuner
×
Best way to learn
"Backseat Serenade"
Autoscroll
slow
fast
+/-
esc
set tempo
stop
All Time Low - Backseat Serenade 
Album: Don't Panic


TUNING: HALF STEP DOWN (Eb Ab Db Gb)

no bass until 0:22
Verse 1 (0:22)
Gb:----------------|----------------|----------------|----------------|
Db:----------------|----------------|----------------|----------------|
Ab:----------------|5555555555555757|3333333333333333|2222222233333333|
Eb:3333333333335555|----------------|----------------|----------------|

Gb:-------------------------|
Db:-------------------------|
Ab:55555555/1717171717171717|
Eb:-------------------------|


Chorus:
Gb:----------------|----------------|
Db:-----79---------|----------------|
Ab:77777--3-3333333|-------5-5555757|
Eb:----------------|3333357---------|

Gb:----------------|----------------|
Db:-----79---------|----------5-575-|
Ab:77777--3-3333333|5555555557-7---5|
Eb:----------------|----------------|

Gb:----------------|----------------|
Db:-----79---------|----------------|
Ab:77777--3-3333333|-------5-5555757|
Eb:----------------|3333357---------|

Gb:----------------|-------------------------|
Db:-----79---------|-------------------------|
Ab:77777--3-3333333|55555555/1717171717171717|
Eb:----------------|-------------------------|

Gb:----------------|
Db:----------------|
Ab:3~--------------|
Eb:----------------|


Verse 2:

Gb:----------------|----------------|----------------|----------------|
Db:----------------|----------------|----------------|----------------|
Ab:----------------|5555555555555757|3333333333333333|2222222233333333|
Eb:3333333333337777|----------------|----------------|----------------|

Gb:----------------|----------------|----------------|----------------|
Db:----------------|----------------|----------------|----------------|
Ab:----------------|5555555555555757|3333333333333333|2222222233333333|
Db:--33333333337777|----------------|----------------|----------------|

Gb:-------------------------|
Db:-------------------------|
Ab:55555555/1717171717171717|
Eb:-------------------------|


Chorus:
Gb:----------------|----------------|
Db:-----79---------|----------------|
Ab:77777--3-3333333|-------5-5555757|
Eb:----------------|3333357---------|

Gb:----------------|----------------|
Db:-----79---------|----------5-575-|
Ab:77777--3-3333333|5555555557-7---5|
Eb:----------------|----------------|

Gb:----------------|----------------|
Db:-----79---------|----------------|
Ab:77777--3-3333333|-------5-5555757|
Eb:----------------|3333357---------|

Gb:----------------|-------------------------|
Db:-----79---------|-------------------------|
Ab:77777--3-3333333|55555555/1717171717171717|
Eb:----------------|-------------------------|


Bridge
Gb:----------------|----------------|
Db:----------------|----------------|
Ab:3~-----5~-------|7~------2~------| x2
Eb:----------------|----------------|

Gb:----------------|----------------|
Db:----------------|----------------|
Ab:3333333355555555|7777777722222222|
Eb:----------------|----------------|

Gb:----------------|
Db:----------------|
Ab:33333333~-------|
Eb:----------------|


last chorus 

Gb:----------------|----------------|
Db:-----79---------|----------------|
Ab:77777--3-3333333|-------5-5555757|
Eb:----------------|3333357---------|

Gb:----------------|----------------|
Db:-----79---------|----------5-575-|
Ab:77777--3-3333333|5555555557-7---5|
Eb:----------------|----------------|

Gb:----------------|----------------|
Db:-----79---------|----------------|
Ab:77777--3-3333333|-------5-5555757|
Eb:----------------|3333357---------|

Gb:----------------|-------------------------|
Db:-----79---------|-------------------------|
Ab:777----3-3333333|55555555/1717171717171717|
Eb:----------------|-------------------------|

Gb:----------------|----------------|
Db:-----79---------|----------------|
Ab:77777--3-3333333|-------5-5555757|
Eb:----------------|3333357---------|

Gb:----------------|----------------|
Db:-----79---------|----------------|
Ab:77777--3-3333333|5~~-------------|
Eb:----------------|----------------|



I think this is how it goes, however if any changes are needed email me at 
calum_dempster@hotmail.co.uk

Calum Dempster

\ = Slide Down
/ = Slide Up
p = Pull Off
~ = Let ring
Suggest correction
comments
print report bad tab
2 comments total.
0 reply
Jupsi 52 Jun 17, 2013 03:40 AM

Why the half step down? There's no notes that requires that extra depth, if your tab is correct (which it probably is)
Wouldn't it be easier for everyone if it was written out in standard tuning? :)
I'll rate it once I've played it through to see if it actually fits xD

guest
You may want to rate the tab now too:
select rating
Wanna post a correction for this tab? Suggest correction