Oops, an error
Loading. Please wait.

Backseat Serenade Bass Tab

version 2
version 2

Whole song

Interactive

1,677 views 9 this week
1 commentread comment
1 2 3 4 5
accurate
x 3
add to favorites
launch autoscroll
font size
0
reset
guitar tuner
Tab Pro tools
  • play this tab
  • loop segment
  • change instrument
  • show fretboard
  • metronome
×
Best way to learn
"Backseat Serenade"
Autoscroll
slow
fast
+/-
esc
set tempo
stop
Contributor
All Time Low - Backseat Serenade 

Standard tuning

Start at ~0:20

1st Verse:
G:  ----------------|----------------|----------------|----------------|
D:  ----------------|----------------|----------------|----------------|
A:  ----------------|4444444444446644|2222222222222222|1111111122222222|
E:9/2222222222224444|----------------|----------------|----------------|

G:-------------------------|
D:-------------------------|
A:44444444/1616161616161616| < 16s
E:-------------------------|


Chorus:
G:----------------|----------------|
D:-----68---------|----------------|
A:66666--2-2222222|-------4-4446644|
E:----------------|2222246---------|

G:----------------|----------------|
D:-----68---------|-----------464--| (Not sure about this fill)
A:66666--2-2222222|44444444446---64|
E:----------------|----------------|

G:----------------|----------------|
D:-----68---------|----------------|
A:66666--2-2222222|-------4-4446644|
E:----------------|2222246---------|

G:----------------|-------------------------|
D:-----68---------|-------------------------|
A:66666--2-2222222|44444444/1616161616161616| < 16s
E:----------------|-------------------------|

G:----------------|
D:----------------|
A:2~--------------|
E:----------------|


2nd Verse:
G:----------------|----------------|----------------|----------------|
D:----------------|----------------|----------------|----------------|
A:----------------|4444444444446644|2222222222222222|1111111122222222|
E:2222222222224444|----------------|----------------|----------------|

G:----------------|----------------|----------------|----------------|
D:----------------|----------------|----------------|----------------|
A:----------------|4444444444446644|2222222222222222|1111111122222222|
E:--22222222224444|----------------|----------------|----------------|

G:-------------------------|
D:-------------------------|
A:44444444/1616161616161616|
E:-------------------------|


Chorus:
G:----------------|----------------|
D:-----68---------|----------------|
A:66666--2-2222222|-------4-4446644|
E:----------------|2222246---------|

G:----------------|----------------|
D:-----68---------|-----------464--| (Not sure about this fill)
A:66666--2-2222222|44444444446---64|
E:----------------|----------------|

G:----------------|----------------|
D:-----68---------|----------------|
A:66666--2-2222222|-------4-4446644|
E:----------------|2222246---------|

G:----------------|-------------------------|
D:-----68---------|-------------------------|
A:66666--2-2222222|44444444/1616161616161616| < 16s
E:----------------|-------------------------|


Bridge:
G:----------------|----------------|
D:----------------|----------------|
A:2~-----4~-------|6~------1~------|
E:----------------|----------------|

G:----------------|----------------|
D:----------------|----------------|
A:2~-----4~-------|6~------1~------|
E:----------------|----------------|

G:----------------|----------------|
D:----------------|----------------|
A:2222222244444444|6666666611111111|
E:----------------|----------------|

G:----------------|
D:----------------|
A:22222222--------|
E:----------------|


Final chorus:
G:----------------|----------------|
D:-----68---------|----------------|
A:66666--2-2222222|-------4-4446644|
E:----------------|2222246---------|

G:----------------|----------------|
D:-----68---------|-----------464--| (Not sure about this fill)
A:66666--2-2222222|44444444446---64|
E:----------------|----------------|

G:----------------|----------------|
D:-----68---------|----------------|
A:66666--2-2222222|-------4-4446644|
E:----------------|2222246---------|

G:----------------|-------------------------|
D:-----68---------|-------------------------|
A:66666--2-2222222|44444444/1616161616161616| < 16s
E:----------------|-------------------------|

G:----------------|----------------|
D:-----68---------|----------------|
A:66666--2-2222222|-------4-4446644|
E:----------------|2222246---------|

G:----------------|----------------|
D:-----68---------|----------------|
A:66666--2-2222222|4~--------------|
E:----------------|----------------|
comments
We did not receive enough feedback on this tab! Please rate:
print report bad tab
1 2 3 4 5
1 comment total.
0 reply
tombass2014 wrote on May 14 2014, 11:54 am

Just played this and it sounds really good, congrats :)

I want to post or [tab]
guest
You may want to rate the tab now too:
select rating
Please do not post tabs as comments. Select "correction" instead!