Oops, an error
Loading. Please wait.

Backseat Serenade Bass Tab

version 3
version 3

Whole song

Interactive

793 views 1 this week
no commentswrite comment
1 2 3 4 5
please rate
add to favorites
launch autoscroll
font size
0
reset
guitar tuner
Autoscroll
slow
fast
+/-
esc
set tempo
stop
Help us to improve Ultimate-Guitar.com Take our survey!
×
Author
Difficulty
Tuning
JackMills 5,817
novice
C# G# C# F# A# D#
   Verse 0:19
F#|---------------------------------------------------------------------|
C#|---------------------------------------------------------------------|
G#|-----------------------------2-2-3-3-----------------------5-7---5---|
C#|-12\-5-5-5-5-5-5-5-5-5-5-5-5---------0-0-0-0-0-0-0-0-0-0-0-----------|
    4 + 1 + 2 + 3 + 4 + 1 + 2 + 3 + 4 + 1 + 2 + 3 + 4 + 1 + 2 + 3 + 4 +

F#|-----------------------------------------------------------------|
C#|---------------------------------2-2-2-2-2-2-2-2-3-3-3-3---------|
G#|-3-3-3-3-3-3-3-3-3-3-3-3-3-3-3-3-------------------------3-3-3-3-|
C#|-----------------------------------------------------------------|
    1 + 2 + 3 + 4 + 1 + 2 + 3 + 4 + 1 + 2 + 3 + 4 + 1 + 2 + 3 + 4 +

   Pre-Chorus
F#|---------------------------------|
C#|---------------------------------|
G#|-5-5-5-5-5-5-5-5/1717171717171717|
C#|---------------------------------|
    1 + 2 + 3 + 4 + 1 + 2 + 3 + 4 +

   Chorus x2
F#|------------------------------------------------------------------|
C#|o-----------------------------------------------------------------|
G#|o---------------3---3-3---3-5-3-----------------------------------|
C#|--2-2---2-2-2-5-------------------5-5---5-5-5---0---0-0---0-0-0---|
     1 + 2 + 3 + 4 + 1 + 2 + 3 + 4 + 1 + 2 + 3 + 4 + 1 + 2 + 3 + 4 +

F#|------------------------------------------------------------------|
C#|-----------------------------------------------------------------o|
G#|---------------3---3-3---3-5-3---5-5-5-5-5-5-5-5/171717171717\-\-o|
C#|-2-2---2-2-2-5----------------------------------------------------|
    1 + 2 + 3 + 4 + 1 + 2 + 3 + 4 + 1 + 2 + 3 + 4 + 1 + 2 + 3 + 4 +

   Interlude
F#|---------------------------------|
C#|---------------------------------|
G#|-3-------------------------------|
C#|---------------------------------|
    1 + 2 + 3 + 4 + 1 + 2 + 3 + 4 +

   Verse
F#|-----------------------------------------------------------------|
C#|-----------------------------------------------------------------|
G#|-------------------------2-2-3-3-5-5-5-5-5-5-5-5-5-5-5-5-7---5---|
C#|-5-5-5-5-5-5-5-5-5-5-5-5-----------------------------------------|
    1 + 2 + 3 + 4 + 1 + 2 + 3 + 4 + 1 + 2 + 3 + 4 + 1 + 2 + 3 + 4 +

F#|-----------------------------------------------------------------|
C#|-----------------------------------------------------------------|
G#|-3-3-3-3-3-3-3-3-3-3-3-3-3-3-3-3-------------------------3-3-3-3-|
C#|---------------------------------2-2-2-2-2-2-2-2-3-3-3-3---------|
    1 + 2 + 3 + 4 + 1 + 2 + 3 + 4 + 1 + 2 + 3 + 4 + 1 + 2 + 3 + 4 +

F#|-----------------------------------------------------------------|
C#|-----------------------------------------------------------------|
G#|-------------------------2-2-3-3-5-5-5-5-5-5-5-5-5-5-5-5-7---5---|
C#|-----5-5-5-5-5-5-5-5-5-5-----------------------------------------|
    1 + 2 + 3 + 4 + 1 + 2 + 3 + 4 + 1 + 2 + 3 + 4 + 1 + 2 + 3 + 4 +

F#|-----------------------------------------------------------------|
C#|-----------------------------------------------------------------|
G#|-3-3-3-3-3-3-3-3-3-3-3-3-3-3-3-3-------------------------3-3-3-3-|
C#|---------------------------------2-2-2-2-2-2-2-2-3-3-3-3---------|
    1 + 2 + 3 + 4 + 1 + 2 + 3 + 4 + 1 + 2 + 3 + 4 + 1 + 2 + 3 + 4 +

   Pre-Chorus
F#|---------------------------------|
C#|---------------------------------|
G#|-5-5-5-5-5-5-5-5-\-\-\-----------|
C#|---------------------------------|
    1 + 2 + 3 + 4 + 1 + 2 + 3 + 4 +

   Chorus x2
F#|------------------------------------------------------------------|
C#|o-----------------------------------------------------------------|
G#|o---------------3---3-3---3-5-3-----------------------------------|
C#|--2-2---2-2-2-5-------------------5-5---5-5-5---0---0-0---0-0-0---|
     1 + 2 + 3 + 4 + 1 + 2 + 3 + 4 + 1 + 2 + 3 + 4 + 1 + 2 + 3 + 4 +

F#|------------------------------------------------------------------|
C#|-----------------------------------------------------------------o|
G#|---------------3---3-3---3-5-3---5-5-5-5-5-5-5-5/171717171717\-\-o|
C#|-2-2---2-2-2-5----------------------------------------------------|
    1 + 2 + 3 + 4 + 1 + 2 + 3 + 4 + 1 + 2 + 3 + 4 + 1 + 2 + 3 + 4 +

Rest

   Bridge
F#|-------------------------------------------------------------------|
C#|o-----------------------------------------------------------------o|
G#|o-3---------------------------------------------------------------o|
C#|------------------0---------------2-------------/-9----------------|x2
     1 + 2 + 3 + 4 + 1 + 2 + 3 + 4 + 1 + 2 + 3 + 4 + 1 + 2 + 3 + 4 +

F#|-----------------------------------------------------------------|
C#|-----------------------------------------------------------------|
G#|-3---------------------------------------------------------------|
C#|-----------------------------------------------------------------|
    1 + 2 + 3 + 4 + 1 + 2 + 3 + 4 + 1 + 2 + 3 + 4 + 1 + 2 + 3 + 4 +

   Chorus
F#|-----------------------------------------------------------------|
C#|-----------------------------------------------------------------|
G#|---------------3---3-3---3-5-3-----------------------------------|
C#|-2-2---2-2-2-5-------------------5-5---5-5-5---0---0-0---0-0-0---|
    1 + 2 + 3 + 4 + 1 + 2 + 3 + 4 + 1 + 2 + 3 + 4 + 1 + 2 + 3 + 4 +

F#|-----------------------------------------------------------------|
C#|-----------------------------------------------------------------|
G#|---------------3---3-3---3-5-3---5-5-5-5-5-5-5-5/171717171717\-\-|
C#|-2-2---2-2-2-5---------------------------------------------------|
    1 + 2 + 3 + 4 + 1 + 2 + 3 + 4 + 1 + 2 + 3 + 4 + 1 + 2 + 3 + 4 +

   Rhythm Changes
F#|-----------------------------------------------------------------|
C#|-----------------------------------------------------------------|
G#|---------------3---3-3---3-5-3-----------------5---5-5---5-5-5---|
C#|-2-2-2---2-2-5-------------------5---5-5-5-5-5-------------------|
    1 + 2 + 3 + 4 + 1 + 2 + 3 + 4 + 1 + 2 + 3 + 4 + 1 + 2 + 3 + 4 +

F#|-----------------------------------------------------------------|
C#|-----------------------------------------------------------------|
G#|---------------3---3-3---3-5-3---5-5-5-5-5-5-5-5/1717--1717------|
C#|-2-2---2-2-2-5---------------------------------------17----17----| < I Think ^^'
    1 + 2 + 3 + 4 + 1 + 2 + 3 + 4 + 1 + 2 + 3 + 4 + 1 + 2 + 3 + 4 +

   Outro
F#|-----------------------------------------------------------------|
C#|-----------------------------------------------------------------|
G#|---------------3---3-3---3-5-3-----------------------------------|
C#|-2-2---2-2-2-5-------------------5-5---5-5-5---0---0-0---0-0-0---|
    1 + 2 + 3 + 4 + 1 + 2 + 3 + 4 + 1 + 2 + 3 + 4 + 1 + 2 + 3 + 4 +

F#|-----------------------------------------------------------------|
C#|-----------------------------------------------------------------|
G#|---------------3---3-3---3-5-3---5-------------------------------|
C#|-2-2---2-2-2-5---------------------------------------------------|
    1 + 2 + 3 + 4 + 1 + 2 + 3 + 4 + 1 + 2 + 3 + 4 + 1 + 2 + 3 + 4 +

Tabbed By Jack Mills
Suggest correction new What's this?
You can suggest a correction to this tab. Community and Mods will review your correction and vote to approve or reject it.
comments
We did not receive enough feedback on this tab! Please rate:
print report bad tab
1 2 3 4 5
guest
You may want to rate the tab now too:
select rating
Please do not post tabs as comments. Select "correction" instead!