Oops, an error
Loading. Please wait.

Bad Enough For You bass

version 1
version 1

Whole song

Interactive

13 views 1 this week
no commentswrite comment
1 2 3 4 5
3 more votes to show rating
add to favorites
×
Save as Personal and add changes to this tab that will be seen only by you. Learn more ›
×
You can save this tab as Personal to edit and correct it or add notes. All changes will be seen only by you. Learn more »
launch autoscroll
font size
0
reset
guitar tuner
edit
Autoscroll
slow
fast
+/-
esc
set tempo
stop
[Verse 1] x2
G|----------------------------------------------------|
D|----------------------------------------------------|
A|--2-----------2s------------------------------------|
E|----------------------------------------------------|

G|----------------------------------------------------|
D|----------------------------------------------------|
A|--4-----------4s------------------------------------|
E|----------------------------------------------------|

G|----------------------------------------------------|
D|----------------------------------------------------|
A|--7-----------7s------------------------------------|
E|----------------------------------------------------|

G|----------------------------------------------------|
D|----------------------------------------------------|
A|--2-----------2s------------------------------------|
E|----------------------------------------------------|


[Pre-Chorus]
G|----------------------------------------------------|
D|----------------------------------------------------|
A|--7--------7----------------------------------------|
E|----------------------------------------------------|

G|----------------------------------------------------|
D|----------------------------------------------------|
A|--6--------6----------------------------------------|
E|----------------------------------------------------|

G|----------------------------------------------------|
D|----------------------------------------------------|
A|--7--------7----------------------------------------|
E|----------------------------------------------------|

G|----------------------------------------------------|
D|----------------------------------------------------|
A|--9-----9--9-----9--9--9--9-----9--9-----9--9--9----|
E|----------------------------------------------------|

G|----------------------------------------------------|
D|----------------------------------------------------|
A|--9--9--9--9--9--9--9--9--9--9--9--9--9-------------|
E|----------------------------------------------------|


[Chorus]
Pt.1 x3
G|----------------------------------------------------|
D|----------------------------------------------------|
A|--2-----2--2-----2--2--2--4-----4--4-----4--4--4----|
E|----------------------------------------------------|

G|----------------------------------------------------|
D|----------------------------------------------------|
A|----------------------------------------------------|
E|--4-----4--4-----4--4--4--2-----2--2-----2--2--2----|

Pt.2
G|----------------------------|
D|----------------------------|
A|----------------------------|
E|--2--2----------------------|

G|----------------------------------------------------|
D|----------------------------------------------------|
A|----------------------------------------------------|
E|--4--------4--------------2--------2----------------|

Pt. 3 x2
G|----------------------------------------------------|
D|----------------------------------------------------|
A|--2-----2--2-----2--2--2--4-----4--4-----4--4--4----|
E|----------------------------------------------------|

G|----------------------------------------------------|
D|----------------------------------------------------|
A|----------------------------------------------------|
E|--4-----4--4-----4--4--4--2-----2--2-----2--2--2----|


[Verse 2]
G|----------------------------------------------------|
D|----------------------------------------------------|
A|--2--------2--------2-------------------------------|
E|----------------------------------------------------|

G|----------------------------------------------------|
D|----------------------------------------------------|
A|--4-----------4s------------------------------------|
E|----------------------------------------------------|

G|----------------------------------------------------|
D|----------------------------------------------------|
A|--7-----------7s------------------------------------|
E|----------------------------------------------------|

G|----------------------------------------------------|
D|----------------------------------------------------|
A|--2-----------2s------------------------------------|
E|----------------------------------------------------|

G|----------------------------------------------------|
D|----------------------------------------------------|
A|--2-----------2s------------------------------------|
E|----------------------------------------------------|

G|----------------------------------------------------|
D|----------------------------------------------------|
A|--4-----------4s------------------------------------|
E|----------------------------------------------------|

G|----------------------------------------------------|
D|----------------------------------------------------|
A|--7-----------7s------------------------------------|
E|----------------------------------------------------|

G|----------------------------------------------------|
D|----------------------------------------------------|
A|--2-----------2s------------------------------------|
E|----------------------------------------------------|


[Pre-Chorus]
G|----------------------------------------------------|
D|----------------------------------------------------|
A|--7--------7----------------------------------------|
E|----------------------------------------------------|

G|----------------------------------------------------|
D|----------------------------------------------------|
A|--6--------6----------------------------------------|
E|----------------------------------------------------|

G|----------------------------------------------------|
D|----------------------------------------------------|
A|--7--------7----------------------------------------|
E|----------------------------------------------------|

G|----------------------------------------------------|
D|----------------------------------------------------|
A|--9-----9--9-----9--9--9--9-----9--9-----9--9--9----|
E|----------------------------------------------------|

G|----------------------------------------------------|
D|----------------------------------------------------|
A|--9--9--9--9--9--9--9--9--9--9--9--9--9-------------|
E|----------------------------------------------------|


[Chorus]
Pt.1 x3
G|----------------------------------------------------|
D|----------------------------------------------------|
A|--2-----2--2-----2--2--2--4-----4--4-----4--4--4----|
E|----------------------------------------------------|

G|----------------------------------------------------|
D|----------------------------------------------------|
A|----------------------------------------------------|
E|--4-----4--4-----4--4--4--2-----2--2-----2--2--2----|

Pt.2
G|----------------------------|
D|----------------------------|
A|----------------------------|
E|--2--2----------------------|

G|----------------------------------------------------|
D|----------------------------------------------------|
A|----------------------------------------------------|
E|--4--------4--------------2--------2----------------|

Pt. 3 x2
G|----------------------------------------------------|
D|----------------------------------------------------|
A|--2-----2--2-----2--2--2--4-----4--4-----4--4--4----|
E|----------------------------------------------------|

G|----------------------------------------------------|
D|----------------------------------------------------|
A|----------------------------------------------------|
E|--4-----4--4-----4--4--4--2-----2--2-----2--2--2----|


[Bridge] x2
G|----------------------------------------------------|
D|----------------------------------------------------|
A|--2--------2--------2-------------------------------|
E|----------------------------------------------------|

G|----------------------------------------------------|
D|----------------------------------------------------|
A|----------------------------------------------------|
E|--4--------4--------4-------------------------------|

G|----------------------------------------------------|
D|----------------------------------------------------|
A|--2--------2--------2-------------------------------|
E|----------------------------------------------------|

G|----------------------------------------------------|
D|----------------------------------------------------|
A|----------------------------------------------------|
E|--2--------2--------2-------------------------------|


[Chorus/Outro]
Pt.1 x3
G|----------------------------------------------------|
D|----------------------------------------------------|
A|--2-----2--2-----2--2--2--4-----4--4-----4--4--4----|
E|----------------------------------------------------|

G|----------------------------------------------------|
D|----------------------------------------------------|
A|----------------------------------------------------|
E|--4-----4--4-----4--4--4--2-----2--2-----2--2--2----|

Pt.2
G|----------------------------|
D|----------------------------|
A|----------------------------|
E|--2--2----------------------| x3

G|----------------------------------------------------|
D|----------------------------------------------------|
A|----------------------------------------------------|
E|--4--------4--------------2--------2----------------|

Pt.3 x2
G|----------------------------------------------------|
D|----------------------------------------------------|
A|--2-----2--2-----2--2--2--4-----4--4-----4--4--4----|
E|----------------------------------------------------|

G|----------------------------------------------------|
D|----------------------------------------------------|
A|----------------------------------------------------|
E|--4-----4--4-----4--4--4--2-----2--2-----2--2--2----|

s - slide
Suggest correction
Creating personal tab
Creating personal tab
You can edit any tab online and save it as your Personal.

You can edit, replace or remove any tab part or add personal notes – all changes will be seen only by you.

Personal tabs can be accessed anytime from any device, even offline.
Learn more »
Give kudos to tab author, rate the tab!
1 2 3 4 5
comments
print report bad tab
guest
You may want to rate the tab now too:
select rating
Wanna post a correction for this tab? Suggest correction