Oops, an error
Loading. Please wait.

Break Out Break Out Bass Tab

version 2
version 2

Whole song

Interactive

2,002 views 3 this week
no commentswrite comment
1 2 3 4 5
excellent!
x 3
add to favorites
launch autoscroll
font size
0
reset
guitar tuner
Tab Pro tools
  • play this tab
  • loop segment
  • change instrument
  • show fretboard
  • metronome
×
Best way to learn
"Break Out Break Out"
Autoscroll
slow
fast
+/-
esc
set tempo
stop
Contributor
Difficulty
novice
-----------------------------------------------------------------------------
			     BREAKOUT BREAKOUT - All Time Low
-----------------------------------------------------------------------------

Tabbed By : Hanson
e-mail: justshort179@spoofer.com

Tuning: Standard

Intro
G|-------------------------|
D|-------------------------|
A|----------2(x16)---------|
E|--0~~0~~----------2(x9)--|

I(cont.)x4 
G|------------------------------------------------|
D|------------------------------------------------|
A|-------------------222---------222--------2244--|
E|--444444--0000000-------00000-------0000--------|

Verse x2
G|-----------|
D|-----------|
A|-----------|
E|--0~~00~~--|

V(cont.)
G|--------------------------------------------------------|
D|--------------------------------------------------------|
A|--2(x8)-------------------------------------------------|
E|---------2(x8)--4(x8)--2(x8)---00~00~~--00-000-2222222--|

Chorus x2
G|------------------------------------------|----------|
D|------------------------------------------|----------|
A|--2(x16)----------------------------------|----------|
E|----------2(x16)--0000~~--0-0000-2222222--|--4~--0~--|

Verse
G|-----------------------------------------------------|
D|-----------------------------------------------------|
A|-------------6-9h11-11------9h11-11h9----------------|
E|--0~~00~~--4-----------9h11-----------11h9--0~~00~~--|

V(cont.)
G|--------------------------------------------------------|
D|--------------------------------------------------------|
A|--2(x8)-------------------------------------------------|
E|---------2(x8)--4(x8)--2(x8)---00~00~~--00-000-2222222--|

Chorus x2
G|------------------------------------------|
D|------------------------------------------|
A|--2(x16)----------------------------------|
E|----------2(x16)--0000~~--0-0000-2222222--|

Bridge (short rest before 2p0's)
G|----------------------------------------------------|
D|----------------------------------------------------|
A|------2~~------2----------2~~-----------------------|
E|--2p0------2p0---2~~--2p0------2p0-0~~---2(x16)--0--|

Chorus
G|----------------------------------------------------------------|
D|----------------------------------------------------------------|
A|--2(x16)-------------------------------2(x16)-------------------|
E|----------2(x16)--0(x16)--0--0--2(x7)----------2(x16)-00-000~~--|

G|---------------------------|
D|---------------------------|
A|----------------------2~~--|
E|--0-000-0--222-2-2-2-------|



| /  slide up
| \  slide down
| h  hammer-on
| p  pull-off
| ~  vibrato
| +  harmonic
| x  Mute note
=============================================================================
comments
We did not receive enough feedback on this tab! Please rate:
print report bad tab
1 2 3 4 5
I want to post or [tab]
guest
You may want to rate the tab now too:
select rating
Please do not post tabs as comments. Select "correction" instead!