Oops, an error
Loading. Please wait.

Break Out Break Out Bass Tab

version 3
version 3

Whole song

Interactive

190 views 6 this week
no commentswrite comment
1 2 3 4 5
please rate
add to favorites
launch autoscroll
font size
0
reset
guitar tuner
Autoscroll
slow
fast
+/-
esc
set tempo
stop
Help us to improve Ultimate-Guitar.com Take our survey!
×
Author
Difficulty
novice
=======================================================================
|                                                                     |
|             All Time Low - Break Out! Break Out! [Bass]             |
|                                                                     |
=======================================================================

Transcribed by: Austen Cheah

r = rest
h = hammer
p = pull-off

=========
| Intro |
=========
  +   +   +   +    +   +   +   +    +   +   +   +    +   +   +   +
G|----------------|----------------|----------------|----------------|
D|----------------|----------------|----------------|----------------|
A|----------------|----------------|----------------|----------------|
E|4---------------|----------------|0---------------|----------------|

  +   +   +   +    +   +   +   +    +   +   +   +    +   +   +   +
G|----------------|----------------|----------------|----------------|
D|----------------|----------------|----------------|----------------|
A|2-2-2-2-2-2-2-2-|2-2-2-2-2-2-2-2-|----------------|----------------|
E|----------------|----------------|2-2-2-2-2-2-2-2-|2r--------------|

  +   +   +   +    +   +   +   +    +   +   +   +    +   +   +   +
G|----------------|----------------|----------------|----------------|
D|----------------|----------------|----------------|----------------|
A|----------------|------------2-2-|2-----------2-2-|2-------2-2-4-4-|
E|4-4-4-4-4-4-4-4-|4-0-0-0-0-0-----|--0-0-0-0-0-----|--0-0-0---------|

  +   +   +   +    +   +   +   +    +   +   +   +    +   +   +   +
G|----------------|----------------|----------------|----------------|
D|----------------|----------------|----------------|----------------|
A|4---------------|------------2-2-|2-----------2-2-|2-------2-2-4-4r|
E|--4-4-4-4-4-4-4-|4-0-0-0-0-0-----|--0-0-0-0-0-----|--0-0-0---------|

  +   +   +   +    +   +   +   +    +   +   +   +    +   +   +   +
G|----------------|----------------|----------------|----------------|
D|----------------|----------------|----------------|----------------|
A|----------------|------------2-2-|2-----------2-2-|2-------2-2-4-4-|
E|----4-4-4-4-4-4-|4-0-0-0-0-0-----|--0-0-0-0-0-----|--0-0-0---------|

  +   +   +   +    +   +   +   +    +   +   +   +    +   +   +   +
G|----------------|----------------|----------------|----------------|
D|----------------|----------------|----------------|----------------|
A|4---------------|------------2-2-|2-----------2-2-|2-------2-2-4-4-|
E|--4-4-4-4-4-4-4-|4-0-0-0-0-0-----|--0-0-0-0-0-----|--0-0-0---------|

===========
| Verse 1 |
===========
  +   +   +   +    +   +   +   +    +   +   +   +    +   +   +   +
G|----------------|----------------|----------------|----------------|
D|----------------|----------------|----------------|----------------|
A|r---------------|----------------|----------------|----------------|
E|----------------|----------------|0---r-0-0-------|----------------|

  +   +   +   +    +   +   +   +    +   +   +   +    +   +   +   +
G|----------------|----------------|----------------|----------------|
D|----------------|----------------|----------------|----------------|
A|----------------|----------------|----------------|----------------|
E|r---------------|----------------|0---r-0-0-------|------------r---|

  +   +   +   +    +   +   +   +    +   +   +   +    +   +   +   +
G|----------------|----------------|----------------|----------------|
D|----------------|----------------|----------------|----------------|
A|2-2-2-2-2-2-2-2-|----------------|----------------|----------------|
E|----------------|2-2-2-2-2-2-2-2-|4-4-4-4-4-4-4-4-|2-2-2-2-2-2-2-2-|

  +   +   +   +    +   +   +   +    +   +   +   +    +   +   +   +
G|----------------|----------------|----------------|----------------|
D|----------------|----------------|----------------|----------------|
A|----------------|----------------|----------------|----------------|
E|0-0-r-0-0-0-----|----------------|0-0-r-0-0-0-----|0h2-2-2-2-2-2-2-|

==========
| Chorus |
==========
  +   +   +   +    +   +   +   +    +   +   +   +    +   +   +   +
G|----------------|----------------|----------------|----------------|
D|----------------|----------------|----------------|----------------|
A|2-2-2-2-2-2-2-2-|2-2-2-2-2-2-2-2-|----------------|----------------|
E|----------------|----------------|2-2-2-2-2-2-2-2-|2-2-2-2-2-2-2-2-|

  +   +   +   +    +   +   +   +    +   +   +   +    +   +   +   +
G|----------------|----------------|----------------|----------------|
D|----------------|----------------|----------------|----------------|
A|----------------|----------------|----------------|----------------|
E|0r-0r-0-0-------|----------------|0---0-0-0---0-0-|0h2-2-2-2-2-2-2-|

  +   +   +   +    +   +   +   +    +   +   +   +    +   +   +   +
G|----------------|----------------|----------------|----------------|
D|----------------|----------------|----------------|----------------|
A|2-2-2-2-2-2-2-2-|2-2-2-2-2-2-2-2-|----------------|----------------|
E|----------------|----------------|2-2-2-2-2-2-2-2-|2-2-2-2-2-2-2-2-|

  +   +   +   +    +   +   +   +    +   +   +   +    +   +   +   +
G|----------------|----------------|----------------|----------------|
D|----------------|----------------|----------------|----------------|
A|----------------|----------------|----------------|----------------|
E|0r-0r-0-0-------|----------------|0---0-0-0---0-0-|0h2-2-2-2-2-2-2-|

  +   +   +   +    +   +   +   +    +   +   +   +    +   +   +   +
G|----------------|----------------|----------------|----------------|
D|----------------|----------------|----------------|----------------|
A|----------------|----------------|----------------|----------------|
E|4---------------|----------------|0---------------|----------------|

===========
| Verse 2 |
===========
  +   +   +   +    +   +   +   +    +   +   +   +    +   +   +   +
G|----------------|----------------|----------------|----------------|
D|----------------|----------------|----------------|----------------|
A|----------------|----------------|----------------|----------------|
E|r---------------|----------------|0---r-0-0-------|----------------|

  +   +   +   +    +   +   +   +    +   +   +   +    +   +   +   +
G|----------------|----------------|----------------|----------------|
D|--------4h6-6r--|----4h6-6p4-----|----------------|----------------|
A|----6r----------|4h6---------6p4-|----------------|----------------|
E|4r--------------|----------------|0---r-0-0-------|------------r---|

  +   +   +   +    +   +   +   +    +   +   +   +    +   +   +   +
G|----------------|----------------|----------------|----------------|
D|----------------|----------------|----------------|----------------|
A|2-2-2-2-2-2-2-2-|----------------|----------------|----------------|
E|----------------|2-2-2-2-2-2-2-2-|4-4-4-4-4-4-4-4-|2-2-2-2-2-2-2-2-|

  +   +   +   +    +   +   +   +    +   +   +   +    +   +   +   +
G|----------------|----------------|----------------|----------------|
D|----------------|----------------|----------------|----------------|
A|----------------|----------------|----------------|----------------|
E|0-0-r-0-0-0-----|----------------|0-0-r-0-0-0-----|0h2-2-2-2-2-2-2-|

==========
| Chorus |
==========
  +   +   +   +    +   +   +   +    +   +   +   +    +   +   +   +
G|----------------|----------------|----------------|----------------|
D|----------------|----------------|----------------|----------------|
A|2-2-2-2-2-2-2-2-|2-2-2-2-2-2-2-2-|----------------|----------------|
E|----------------|----------------|2-2-2-2-2-2-2-2-|2-2-2-2-2-2-2-2-|

  +   +   +   +    +   +   +   +    +   +   +   +    +   +   +   +
G|----------------|----------------|----------------|----------------|
D|----------------|----------------|----------------|----------------|
A|----------------|----------------|----------------|----------------|
E|0r-0r-0-0-------|----------------|0---0-0-0---0-0-|0h2-2-2-2-2-2-2-|

  +   +   +   +    +   +   +   +    +   +   +   +    +   +   +   +
G|----------------|----------------|----------------|----------------|
D|----------------|----------------|----------------|----------------|
A|2-2-2-2-2-2-2-2-|2-2-2-2-2-2-2-2-|----------------|----------------|
E|----------------|----------------|2-2-2-2-2-2-2-2-|2-2-2-2-2-2-2-2-|

  +   +   +   +    +   +   +   +    +   +   +   +    +   +   +   +
G|----------------|----------------|----------------|----------------|
D|----------------|----------------|----------------|----------------|
A|----------------|----------------|----------------|----------------|
E|0r-0r-0-0-------|----------------|0---0-0-0---0-0-|0h2-2-2-2-2-2-2-|

==========
| Bridge |
==========
  +   +   +   +    +   +   +   +    +   +   +   +    +   +   +   +
G|----------------|----------------|----------------|----------------|
D|----------------|----------------|----------------|----------------|
A|------------2---|----------------|----------------|----------------|
E|4-4-4-0r--------|----------------|----------------|----------------|

  +   +   +   +    +   +   +   +    +   +   +   +    +   +   +   +
G|----------------|----------------|----------------|----------------|
D|----------------|----------------|----------------|----------------|
A|------------2---|----------------|----------------|----------------|
E|4-4-4-0r--------|----2-----------|----------------|----------------|

  +   +   +   +    +   +   +   +    +   +   +   +    +   +   +   +
G|----------------|----------------|----------------|----------------|
D|----------------|----------------|----------------|----------------|
A|------------2---|----------------|----------------|----------------|
E|4-4-4-0r--------|----------------|----------------|----------------|

  +   +   +   +    +   +   +   +    +   +   +   +    +   +   +   +
G|----------------|----------------|----------------|----------------|
D|----------------|----------------|----------------|----------------|
A|----------------|----------------|----------------|----------------|
E|4-4-4-0r----0---|----------------|----------------|--------r-------|

  +   +   +   +    +   +   +   +    +   +   +   +    +   +   +   +
G|----------------|----------------|----------------|----------------|
D|----------------|----------------|----------------|----------------|
A|----------------|----------------|----------------|----------------|
E|2-2-2-2-2-2-2-2-|2-2-2-2-2-2-2-2-|0r--------------|----------------|

==========
| Chorus |
==========
  +   +   +   +    +   +   +   +    +   +   +   +    +   +   +   +
G|----------------|----------------|----------------|----------------|
D|----------------|----------------|----------------|----------------|
A|2-2-2-2-2-2-2-2-|2-2-2-2-2-2-2-2-|----------------|----------------|
E|----------------|----------------|2-2-2-2-2-2-2-2-|2-2-2-2-2-2-2-2-|

  +   +   +   +    +   +   +   +    +   +   +   +    +   +   +   +
G|----------------|----------------|----------------|----------------|
D|----------------|----------------|----------------|----------------|
A|----------------|----------------|----------------|----------------|
E|0-0-0-0-0-0-0-0-|0-0-0-0-0-0-0-0-|r---0---r---0---|0h2-2-2-2-2-2-2-|

  +   +   +   +    +   +   +   +    +   +   +   +    +   +   +   +
G|----------------|----------------|----------------|----------------|
D|----------------|----------------|----------------|----------------|
A|2-2-2-2-2-2-2-2-|2-2-2-2-2-2-2-2-|4-4-4-4-4-4-4-4-|4-4-4-4-4-4-4-4-|
E|----------------|----------------|----------------|----------------|

  +   +   +   +    +   +   +   +    +   +   +   +    +   +   +   +    +
G|----------------|----------------|----------------|----------------|-
D|----------------|----------------|----------------|----------------|-
A|----------------|----------------|----------------|----------------|2
E|0r-0r-0-0-------|----------------|0---0-0-0---0-0-|0h2-2-2-2r-2r-2-|-
Suggest correction
What's this?
You can suggest a correction to this tab. Community and Mods will review your correction and vote to approve or reject it.
comments
We did not receive enough feedback on this tab! Please rate:
print report bad tab
1 2 3 4 5
guest
You may want to rate the tab now too:
select rating
Please do not post tabs as comments. Select "correction" instead!