Oops, an error
Loading. Please wait.

Break Out Break Out bass

version 4
version 4

Whole song

Interactive

13 views 3 this week
no commentswrite comment
1 2 3 4 5
3 more votes to show rating
add to favorites
×
Save as Personal and add changes to this tab that will be seen only by you. Learn more ›
×
You can save this tab as Personal to edit and correct it or add notes. All changes will be seen only by you. Learn more »
launch autoscroll
font size
0
reset
guitar tuner
edit
Autoscroll
slow
fast
+/-
esc
set tempo
stop
About this tab version
Bass tab of the song. On standard tuning EADG. Was this info helpful? Yes No
[Intro]
Pt.1
G |----------|-------|-------|
D |----------|-------|-------|
A |----------|-------|-------|
E |----------|--4----|--0----|

G|----------------------------------------------------|
D|----------------------------------------------------|
A|----------------------------------------------------|
E|--7--7--7--7--7--7--7--7--7--7--7--7--7--7--7--7----|

G|----------------------------------------------------|
D|----------------------------------------------------|
A|----------------------------------------------------|
E|--2--2--2--2--2--2--2--2--2-------------------------|

G|----------------------------------------------------|
D|----------------------------------------------------|
A|----------------------------------------------------|
E|--4--4--4--4--4--4--4--4-----0--0--0--0--0--7--7----|

G|----------------------------------------------------|
D|----------------------------------------------------|
A|----------------------------------------------------|
E|--7--0--0--0--0--0--7--7-----0--0--0--0--0--9--9----|

Pt.2 x3
G|----------------------------------------------------|
D|----------------------------------------------------|
A|----------------------------------------------------|
E|--9--4--4--4--4--4--4--4-----0--0--0--0--0--7--7----|

G|----------------------------------------------------|
D|----------------------------------------------------|
A|----------------------------------------------------|
E|--7--0--0--0--0--0--7--7-----0--0--0--0--0--9--9----|

[Verse 1]
G|--------------------------------------------------------------------------------|
D|--------------------------------------------------------------------------------|
A|--------------------------------------------------------------------------------|
E|--4-----------4-----------4-----------4-----------4-----------4-----------4-----|

G|--------------------|----------------------------------------------------|
D|--------------------|----------------------------------------------------|
A|--------------------|----------------------------------------------------|
E|------4-------------|--0--------0--0-------------------------------------|

G|--------------------------------------------------------------------------------|
D|--------------------------------------------------------------------------------|
A|--------------------------------------------------------------------------------|
E|--4-----------4-----------4-----------4-----------4-----------4-----------4-----|

G|--------------------|----------------------------------------------------|
D|--------------------|----------------------------------------------------|
A|--------------------|----------------------------------------------------|
E|------4-------------|--0--------0--0-----------------------0-------------|

[Pre-Chorus]
G|----------------------------------------------------|
D|----------------------------------------------------|
A|----------------------------------------------------|
E|--7--7--7--7--7--7--7--7--2--2--2--2--2--2--2--2----|

G|----------------------------------------------------|
D|----------------------------------------------------|
A|----------------------------------------------------|
E|--4--4--4--4--4--4--4--4--2--2--2--2--2--2--2--2----|

G|----------------------------------------------------|
D|----------------------------------------------------|
A|----------------------------------------------------|
E|--0--------0--0-------------------------------------|

G|----------------------------------------------------|
D|----------------------------------------------------|
A|----------------------------------------------------|
E|--0--------0--0-----------2--2--2--2--2--2--2--2----|

[Chorus] x2
G|---------------------------------------------------|
D|---------------------------------------------------|
A|---------------------------------------------------|
E|-7--7--7--7--7--7--7--7--7--7--7--7--7--7--7--7----|

G|----------------------------------------------------|
D|----------------------------------------------------|
A|----------------------------------------------------|
E|--2--2--2--2--2--2--2--2--2--2--2--2--2--2--2--2----|

G|--------------------------------------------------------------------------------|
D|--------------------------------------------------------------------------------|
A|--------------------------------------------------------------------------------|
E|--0--------0--------0-----0-----------------------------------------------------|

G|--------------------|---------------------------------------------------|
D|--------------------|---------------------------------------------------|
A|--------------------|---------------------------------------------------|
E|--------------------|--0--0--0--0--0--0--0--0--2--2--2--2--2--2--2--2---|

[Verse 1]
G|--------------------------------------------------------------------------------|
D|--------------------------------------------------------------------------------|
A|--------------------------------------------------------------------------------|
E|--4-----------4-----------4-----------4-----------4-----------4-----------4-----|

G|--------------------|----------------------------------------------------|
D|--------------------|----------------------------------------------------|
A|--------------------|----------------------------------------------------|
E|------4-------------|--0--------0--0-------------------------------------|

G|--------------------------------------------------------------------------------|
D|--------------------------------------------------------------------------------|
A|--------------------------------------------------------------------------------|
E|--4-----------4-----------4-----------4-----------4-----------4-----------4-----|

G|--------------------|----------------------------------------------------|
D|--------------------|----------------------------------------------------|
A|--------------------|----------------------------------------------------|
E|------4-------------|--0--------0--0-----------------------0-------------|

[Pre-Chorus]
G|----------------------------------------------------|
D|----------------------------------------------------|
A|----------------------------------------------------|
E|--7--7--7--7--7--7--7--7--2--2--2--2--2--2--2--2----|

G|----------------------------------------------------|
D|----------------------------------------------------|
A|----------------------------------------------------|
E|--4--4--4--4--4--4--4--4--2--2--2--2--2--2--2--2----|

G|----------------------------------------------------|
D|----------------------------------------------------|
A|----------------------------------------------------|
E|--0--------0--0-------------------------------------|

G|----------------------------------------------------|
D|----------------------------------------------------|
A|----------------------------------------------------|
E|--0--------0--0-----------2--2--2--2--2--2--2--2----|

[Chorus] x2
G|---------------------------------------------------|
D|---------------------------------------------------|
A|---------------------------------------------------|
E|-7--7--7--7--7--7--7--7--7--7--7--7--7--7--7--7----|

G|----------------------------------------------------|
D|----------------------------------------------------|
A|----------------------------------------------------|
E|--2--2--2--2--2--2--2--2--2--2--2--2--2--2--2--2----|

G|--------------------------------------------------------------------------------|
D|--------------------------------------------------------------------------------|
A|--------------------------------------------------------------------------------|
E|--0--------0--------0-----0-----------------------------------------------------|

G|--------------------|---------------------------------------------------|
D|--------------------|---------------------------------------------------|
A|--------------------|---------------------------------------------------|
E|--------------------|--0--0--0--0--0--0--0--0--2--2--2--2--2--2--2--2---|

[Bridge]
G|----------------------------------------------------|
D|----------------------------------------------------|
A|--------------------------------------------0-------|
E|--4--4--4--0--------7-------------------------------|

G|----------------------------------------------------|
D|----------------------------------------------------|
A|----------------------------------------------------|
E|--4--4--4--0--------7-----------2-------------------|

G|----------------------------------------------------|
D|----------------------------------------------------|
A|----------------------------------------------------|
E|--4--4--4--0--------7-------------------------------|

G|----------------------------------------------------|
D|----------------------------------------------------|
A|----------------------------------------------------|
E|--4--4--4--0--------0-------------------------------|

G|----------------------------------------------------|
D|----------------------------------------------------|
A|----------------------------------------------------|
E|--2--2--2--2--2--2--2--2--2--2--2--2--2--2--2--2----|

G|----------------------------------------------------|
D|----------------------------------------------------|
A|----------------------------------------------------|
E|--0-------------------------------------------------|

[Chorus] x2
G|---------------------------------------------------|
D|---------------------------------------------------|
A|---------------------------------------------------|
E|-7--7--7--7--7--7--7--7--7--7--7--7--7--7--7--7----|

G|----------------------------------------------------|
D|----------------------------------------------------|
A|----------------------------------------------------|
E|--2--2--2--2--2--2--2--2--2--2--2--2--2--2--2--2----| x2

G|---------------------------------------------------|
D|---------------------------------------------------|
A|---------------------------------------------------|
E|--0-----0-----0-----0-----0--2--2--2--2--2--2--2---| 

            
            
Suggest correction
Creating personal tab
Creating personal tab
You can edit any tab online and save it as your Personal.

You can edit, replace or remove any tab part or add personal notes – all changes will be seen only by you.

Personal tabs can be accessed anytime from any device, even offline.
Learn more »
Give kudos to tab author, rate the tab!
1 2 3 4 5
comments
print report bad tab
guest
You may want to rate the tab now too:
select rating
Wanna post a correction for this tab? Suggest correction