Oops, an error
Loading. Please wait.

Break Your Little Heart Bass Tab

version 1
version 1

Whole song

Interactive

24,869 views 33 this week
2 commentsread comments
1 2 3 4 5
excellent!
x 8
add to favorites
launch autoscroll
font size
0
reset
guitar tuner
Tab Pro tools
  • play this tab
  • loop segment
  • change instrument
  • show fretboard
  • metronome
×
Best way to learn
"Break Your Little Heart"
Autoscroll
slow
fast
+/-
esc
set tempo
stop
Contributor
Difficulty
Tuning
novice
D A D G B E
-------------------------------------------------------------------------------
			     Break Your Little Heart - All Time Low
-------------------------------------------------------------------------------

Tabbed By : MusicMan24
e-mail: a7t1r1@hotmail.com

This is one of the best songs off Nothing Personal, and I noticed
that there wasn't a bass tab for it, so I tabbed it.

Btw, I haven't figured out the fills in the last two choruses, but
I'm still working on them.


Tuning: Drop D (DADG)


Intro x1

G|------------------------------|
D|------------------------------|
A|---------------------------4--|
D|4--44--6-66666-8--88--8--8--6-|

G|---------------------------------|
D|---------------------------------|
A|---------------------------4-----|
D|4--44--6-66666-8--88--8--8--6-4\-|


Verse x1

G|--------------------------------------------------|
D|--------------------------------------------------|
A|4--------4---------------------------------4------|
D|--6--8\----6-44444444-66666666-888888888888--6-4\-|

G|--------------------------------------------------|
D|--------------------------------------------------|
A|4-------4-----------------------------------------|
D|--6--8\---6-44444444-66666666-44444444/1616161616-|


Chorus x1

G|------------------------------------------------------------------|
D|------------------------------------------------------------------|
A|44444444-----------------6-4--------------------------------------|
D|--------66666666-8888-6-8---44444444-88888888-66666666-44444444-4-|

Intro x1


Verse x1 (Not too sure if that fill is right)

G|---------------------------------------------------|
D|---------------------------------------------------|
A|4-------4------------------------------------6-4---|
D|--6--8\---6-44444444-66666666-88888888888-6-8---4\-|

G|--------------------------------------------------|
D|--------------------------------------------------|
A|4-------4-----------------------------------------|
D|--6--8\---6-44444444-66666666-44444444/1616161616-|


Chorus x1

G|------------------------------------------------------------------------|
D|------------------------------------------------------------------------|
A|44444444-----------------6-4--------------------------------------------|
D|--------66666666-8888-6-8---44444444-88888888-66666666-4444444444444444-|

G|------------------------------------------------------------------|
D|------------------------------------------------------------------|
A|44444444-----------------6-4--------------------------------------|
D|--------66666666-8888-6-8---44444444-88888888-66666666-44444444-4-|


Pre-Solo

G|-------------------------------------------------------------|
D|-------------------------------------------------------------|
A|-----------------44444444---------------------------4~-4~----|
D|88888888-44444444--------66666666-88888888-44444444-------6~-|


Solo x1

G|-------------------------------------------------------------------------|
D|-------------------------------------------------------------------------|
A|44444444-----------------------------------------------------------------|
D|--------66666666-88888888-44444444-88888888-66666666-44444444/1616161616-|


Outro Chorus x1

G|------------------------------------------------------------------------|
D|------------------------------------------------------------------------|
A|44444444-----------------6-4--------------------------------------------|
D|--------66666666-8888-6-8---44444444-88888888-66666666-4444444444444444-|

G|------------------------------------------------------------------|
D|------------------------------------------------------------------|
A|44444444-----------------6-4--------------------------------------|
D|--------66666666-8888-6-8---44444444-88888888-66666666-44444444-4-|


PEACE OUT


| /  slide up
| \  slide down
| h  hammer-on
| p  pull-off
| ~  vibrato
| +  harmonic
| x  Mute note
===============================================================================
comments
print report bad tab
2 comments total.
0 reply
BassDogg93 wrote on March 19 2011, 03:55 pm

Very good tab 100% Awesome!!!!

0 reply
Leviathan34 wrote on February 10 2014, 04:03 pm

Great tab man! I think the fill in the chorus goes like this though
G|--------------------|
D|--------------------|
A|--------6-----------|
D|-8888-8---8-6-44444-|

And I think the fill in the verse goes like this
G|--------------|
D|--------------|
A|---6-8-6------|
D|-8-------6-8/-|

I want to post or [tab]
guest
You may want to rate the tab now too:
select rating
Please do not post tabs as comments. Select "correction" instead!