Oops, an error
Loading. Please wait.

Break Your Little Heart Tab

version 1
version 1

Live

Interactive

691 views 9 this week
no commentswrite comment
1 2 3 4 5
3 more votes to show rating
add to favorites
launch autoscroll
font size
0
reset
how to read this tab
guitar tuner
Autoscroll
slow
fast
+/-
esc
set tempo
stop
Help us to improve Ultimate-Guitar.com Take our survey!
×
Author
Difficulty
Tuning
novice
C# G# C# F# A# D#
All Time Low - Break Your Little Heart Live
Tabbed by : Khalamity
Drop C#
Based on their Straight to DVD Performance

Format :

Main Riff
Verse 1
Chorus
Main Riff
Verse 2
Chorus x2
Bridge
Solo
Chorus x2

~~~~~~~~Main Riff~~~~~~~~

Alex
D#|------------------------------------------------------|
A#|------------------------------------------------------|
F#|------------------------------------------------------|
C#|------4---6-4-3--6---6-4-3-------8---6-4-3----8-------|
G#|------4----------6---------6-4---8------------8---8-6-|
C#|-11/--4----------6---------------8------------8-------|

D#|-------------------------------------------------|
A#|-------------------------------------------------|
F#|-------------------------------------------------|
C#|-4---6-4-3--6---6-4-3-------8---6-4-3----8-------|
G#|-4----------6---------6-4---8------------8---8-6-|
C#|-4----------6---------------8------------8-------|


Jack
D#|---------------------------------------|
A#|---------------------------------------|
F#|-----------------------------------6---|
C#|-4--4-4---6--6666---8--8-8---8--8--6-6-| x2
G#|-4--4-4---6--6666---8--8-8---8--8--4-6-| 
C#|-4--4-4---6--6666---8--8-8---8--8----6-|



~~~~~~~~Verse 1~~~~~~~~


Alex
D#|----------------------------------------------|
A#|----------------------------------------------|
F#|----6------6------------------------------6---|
C#|-4--6-6-8--6-6-4--------------------------6-6-|
G#|-4--4-6-8--4-6-4-444444-66666666-88888888-4-6-| 
C#|-4----6-8----6-4-444444-66666666-88888888---6-|
                    xxxxxx xxxxxxxx xxxxxxxx

D#|--------------------------------------------|
A#|--------------------------------------------|
F#|----6------6--------------------------------|
C#|-4--6-6-8--6-6-4----------------------------|
G#|-4--4-6-8--4-6-4-444444-66666666-4444444444-| 
C#|-4----6-8----6-4-444444-66666666-4444444444-|
                    xxxxxx xxxxxxxx xxxxxx

Jack
D#|---------------------------------------|
A#|---------------------------------------|
F#|-66666666-6666-8-10--66666666-6666-8-8-|
C#|-xxxxxxxx-xxxx-x-x---xxxxxxxx-xxxx-x-x-|
G#|-44444444-4444-6-8---44444444-4444-6-6-|
C#|---------------------------------------|

D#|---------------------------------|
A#|---------------------------------|
F#|-66666666-88888888-66666666--6-6-|
C#|-xxxxxxxx-xxxxxxxx-xxxxxxxx--x-x-|
G#|-44444444-66666666-44444444--4-4-|
C#|---------------------------------|
     xxxxxxx  xxxxxxx  xxxxxxx

D#|----------------------------------|
A#|----------------------------------|
F#|-66666666-6666-6-6--6~-------6666-|
C#|-xxxxxxxx-xxxx-x-x--x~-------xxxx-|
G#|-44444444-4444-4-4--4~-------4444-|
C#|----------------------------------|

D#|-------------------------------|
A#|-------------------------------|
F#|-66666666-88888888-66666666--6-|
C#|-xxxxxxxx-xxxxxxxx-xxxxxxxx--x-|
G#|-44444444-66666666-44444444--4-|
C#|-------------------------------|
     xxxxxxx  xxxxxxx xxxx        



~~~~~~~~Chorus~~~~~~~~

Alex
D#|-------------------------------------|------------------------------------|
A#|-------------------------------------|------------------------------------|
F#|-66666666----------------------------|------------------------------------|
C#|-66666666-66666666-88888888-44444444-|-88888888-66666666-444444444-4------|
G#|-44444444-66666666-88888888-44444444-|-88888888-66666666-444444444-4------|
C#|----------66666666-88888888-44444444-|-88888888-66666666-444444444-4------|


Jack
D#|-16----16----16--------16--------------16--------------14--------14-------14---|
A#|----14----14----141414----141414141414---141414141414-----141414---141414---14-|
F#|-------------------------------------------------------------------------------|
C#|-------------------------------------------------------------------------------| x2
G#|-------------------------------------------------------------------------------|
C#|-------------------------------------------------------------------------------|


~~~~~~~~Verse 1~~~~~~~~


Alex
D#|----------------------------------------------|
A#|----------------------------------------------|
F#|----6------6------------------------------6---|
C#|-4--6-6-8--6-6-4--------------------------6-6-|
G#|-4--4-6-8--4-6-4-444444-66666666-88888888-4-6-| 
C#|-4----6-8----6-4-444444-66666666-88888888---6-|
                    xxxxxx xxxxxxxx xxxxxxxx

D#|---xx-xx-xx-----------------------------------------|
A#|---xx-xx-xx-----------------------------------------|
F#|---xx-xx-xx-6------6--------------------------------|
C#|-4-xx-xx-xx-6-6-8--6-6-4----------------------------|
G#|-4-xx-xx-xx-4-6-8--4-6-4-444444-66666666-4444444444-| 
C#|-4-xx-xx-xx---6-8----6-4-444444-66666666-4444444444-|
                            xxxxxx xxxxxxxx xxxxxx

Jack
D#|----------------------------------------|
A#|----------------------------------------|
F#|-66666666-6666-8-10--66666666-6666-8-10-|
C#|-xxxxxxxx-xxxx-x-x---xxxxxxxx-xxxx-x-x--|
G#|-44444444-4444-6-8---44444444-4444-6-8--|
C#|----------------------------------------|

D#|-------------16----------|   |-------16--------16--------16-----------|
A#|-14-14-13-14----14-13-14-|   |-13-14-----13-14-----13-14----13-14-16/-|
F#|-------------------------|   |----------------------------------------|
C#|-------------------------| x3|----------------------------------------|
G#|-------------------------|   |----------------------------------------|
C#|-------------------------|   |----------------------------------------|
  

D#|------------------------|
A#|------------------------|
F#|---------------8-10--6~-|
C#|---------------x-x---x~-|
G#|---------------6-8---4~-|
C#|------------------------|

D#|-------------16----------|   |-------16--------16--------16-----------|
A#|-14-14-13-14----14-13-14-|   |-13-14-----13-14-----13-14----13-14-16/-|
F#|-------------------------|   |----------------------------------------|
C#|-------------------------| x3|----------------------------------------|
G#|-------------------------|   |----------------------------------------|
C#|-------------------------|   |----------------------------------------|   



~~~~~~~Bridge~~~~~~~

Alex
D#|-------------------------------------|--------------------------|
A#|-------------------------------------|--------------------------|
F#|--------------------66666666---------|-------------------6-6----|
C#|--88888888-44444444-66666666-66666666|-88888888-44444444-6-6-6~-|
G#|--88888888-44444444-44444444-66666666|-88888888-44444444-4-4-6~-|
C#|--88888888-44444444----------66666666|-88888888-44444444-----6~-|


Jack
D#|-------9-----9-----9-----9-----9-|   |--9~-9~--\11~-|
A#|-6-6-7---6-7---6-7---6-7---6-7---|   |--------------|
F#|---------------------------------|   |--------------|
C#|---------------------------------| x3|--------------|
G#|---------------------------------|   |--------------|
C#|---------------------------------|   |--------------|


~~~~~~~Solo~~~~~~~

Alex
D#|---------------------------------------------------------------|
A#|---------------------------------------------------------------|
F#|---------------------------------------------13-------13-------|
C#|-11-11-11----10-10-10----8-10-11----------------10-11----10-11-|
G#|----------11----------11---------11~-11-9-8--------------------|
C#|---------------------------------------------------------------|

D#|-----------------------------------------|
A#|-------------------------------------14/-|
F#|-13-------13-------13-------13-----------|
C#|----10-11----10-11----10-11----10-11-----|
G#|-----------------------------------------|
C#|-----------------------------------------|


Jack
D#|-------------------------------------|------------------------------------|
A#|-------------------------------------|------------------------------------|
F#|-66666666----------------------------|------------------------------------|
C#|-66666666-66666666-88888888-44444444-|-88888888-66666666-444444444-4------|
G#|-44444444-66666666-88888888-44444444-|-88888888-66666666-444444444-4------|
C#|----------66666666-88888888-44444444-|-88888888-66666666-444444444-4------|
Suggest correction
Give kudos to tab author, rate the tab!
1 2 3 4 5
comments
print report bad tab
guest
You may want to rate the tab now too:
select rating
Wanna post a correction for this tab? Suggest correction