Oops, an error
Loading. Please wait.

Break Your Little Heart Tab

version 1
version 1
64,835 views 18 this week
5 commentsread comments
1 2 3 4 5
accurate
x 6
add to favorites
launch autoscroll
font size
0
reset
how to read this tab
guitar tuner
Autoscroll
slow
fast
+/-
esc
set tempo
stop
Help us to improve Ultimate-Guitar.com Take our survey!
×
Author
Difficulty
Tuning
novice
D A D G B E
Song: Break Your Little Heart
Artist: All Time Low
Album: Nothing Personal (2009)

This song is played in Drop D (DADGBe).

                        Intro/Postchorus


e|-----|------------------------------------------------|
B|-----|------------------------------------------------|
G|-----|------------------------------------------------|
D|-11/-|--4--6p4-3--6--6-4-3------8--6p4-3--8----3------|
A|-11/-|--4---------6--------6-4--8---------8--4---6----|
D|-11/-|--4---------6-------------8---------8-----------|

                               Verse 1


e|------------------------------|------|------|------|
B|------------------------------|------|------|------|
G|----6--6------6--6------------|------|------|-6----| Figure out strumming.
D|-4--x--6-6-8--x--6-6-4~-4--6--|-8----|-4----|-6-8--|
A|-4--4--4-6-8--4--4-6-4~-4--6--|-8-x12|-4-x12|-4-8--|
D|-4-------6-8-------6-4~-4--6--|-8----|-4----|---8--|
                          .  .    .      .

                Chorus

e|---------------------------------------|
B|-----------------------P---------------|
G|-6---------------------A---------------|
D|-6--6--8--4--8--6--4---U---------------| Figure out strumming.
A|-4--6--8--4--8--6--4---S---------------|
D|----6--8--4--8--6--4---E---------------|


                       Verse 2


e|----x--------------------x-----------------------------|
B|----x--------------------x-----------------------------|
G|----x-------------6------x-------------6---------------|
D|-4--x-(figureout--6-6-8--x-(figureout--6-6-4--4--6--4--|
A|-4--x--strumming)-4-6-8--x--strumming)-4-6-4--4--6--4--|
D|-4--x---------------6-8--x---------------6-4--4--6--4--|
                                                .  .  .

              Bridge

e|-------------------------------|
B|-------------------------------|
G|-------6-----------6-----------| Figure out strumming
D|-8--4--6--6--8--4--6--6--------|
A|-8--4--4--6--8--4--4--6--------|
D|-8--4-----6--8--4-----6--------|

        Bridge "solo" thing

e|------------------------------------|
B|------------------------------------|
G|-1/6~--1/5~--1/3~/5~-5h6\1~--1------|
D|-------------------------------4-3--|
A|------------------------------------|
D|------------------------------------|

e|-------------------------------------------------------------------------|
B|-------------------------------------------------------------------------|
G|-131313------------131313------------13-----13------13-----13-----13/18~-|
D|-------101010-1111-------101010-1111---10h11--10h11---10h11--10h11-------|
A|-------------------------------------------------------------------------|
D|-------------------------------------------------------------------------|

                     Ending chorus

e|------------------------------------------------|
B|-P----------------------------------------------|
G|-A-------------------------6--------------------|  Figure out strumming.
D|-U--11/--6--8--4--8--6--4--6--6--8--4--8--6--4--|
A|-S--11/--6--8--4--8--6--4--4--6--8--4--8--6--4--|
D|-E--11/--6--8--4--8--6--4-----6--8--4--8--6--4--|


Comment, and let me know if I forgot anything, or messed up anywhere.
Thank you. :D


Order of song:

Intro/Postchorus      x2
Verse 1               x2
Chorus                x1
Intro/Postchorus      x2
Verse 1               x1
Verse 2               x1
Chorus                x2
Bridge                x1
Bridge "solo" thing   x1
Ending chorus         x1


h- hammer on
p- pull off
/- slide up
\- slide down
x- dead string
~- let ring
Suggest correction
What's this?
You can suggest a correction to this tab. Community and Mods will review your correction and vote to approve or reject it.
comments
print report bad tab
5 comments total. Showing first comments.
0 reply
Aurigo 1,178 wrote on July 6 2009, 03:59 pm

easy song, learnt in seconds :)
nice tab.

0 reply
Sam Rulez D00d 1,831 wrote on July 6 2009, 04:30 pm

good tab. cool username =P

0 reply
\m/[-_-]\m/ 608 wrote on July 6 2009, 10:43 pm

nice tab. five starz :)

guest
You may want to rate the tab now too:
select rating
Please do not post tabs as comments. Select "correction" instead!