Oops, an error
Loading. Please wait.

Break Your Little Heart Bass Tab

version 2
version 2

Whole song

Interactive

4,059 views 1 this week
no commentswrite comment
1 2 3 4 5
accurate
x 4
add to favorites
launch autoscroll
font size
0
reset
guitar tuner
Tab Pro tools
  • play this tab
  • loop segment
  • change instrument
  • show fretboard
  • metronome
×
Best way to learn
"Break Your Little Heart"
Autoscroll
slow
fast
+/-
esc
set tempo
stop
Difficulty
novice
-------------------------------------------------------------------------------
			     Break Your Little Heart - All Time Low
-------------------------------------------------------------------------------

Hello! I'm Korean. This is my first tabs.
I want to be a bassist in punkband. Send me an E-Male !


Tuning: Standard


Intro 1

G|---------------------------------------------|
D|---------------------------------------------|
A|-------------------4--------------------4----|
D|222--444444-666-66--4-222-444444-666-66---4-2|

Verse 1

G|-----------------------------------------------------|
D|-----------------------------------------------------|
A|4-------4---------------------------------4-----4----|
D|--4-6----4-22222222-44444444-666666666666--4-2----4-6|

G|-----------------------------------|
D|------------------------------4444x|
A|4---------------------------4------|
D|--4-22222222-44444444-222222-------|


Chorus 1

G|------------------------------------------------------------------|
D|----------------------------------------------------------------4x|
A|44444444------------------------------------------------------4---|
D|---------44444444-66666666-22222222-66666666-44444444-2222222-----|

Intro 2

G|---------------------------------------------|
D|---------------------------------------------|
A|-------------------4--------------------4----|
D|222--444444-666-66--4-222-444444-666-66---4-2|

Verse 2

G|------------------------------------------------|
D|----------------------------------------4-3-----|
A|4-----4-------------------------------4-----4---|
D|-4-6----4-22222222-44444444-666666666---------2x|

G|--------------------------------------------|
D|--------------------------------------44444x|
A|4------4-----------------------------4------|
D|--4-6---4-22222222-44444444-2222222---------|


Chorus 2

G|------------------------------------------------------------------------|
D|------------------------------------------------------------------------|
A|44444444--------------6-4--------------------------------------6-4------|
D|--------4444444-66666----4-2222222-66666666-44444444-22222222-4----4-6-4|

G|-------------------------------------------------------------------|
D|----------------------------------------------------6---444444---4x|
A|44444444------------------------------6-4---------4---4--------4---|
D|--------44444444-6666666-2222222-66666----4-22222------------------|


Pre-Solo

G|-----------------------------------------------------------|
D|-----------------------------------------------------------|
A|-----------------44444444-----4-3---------------------4-4--|
D|66666666-22222222--------4444-----4-66666666-22222222-----4|


Solo

G|--------------------------------------------------------------|
D|--------------------------------------------------------44444x|
A|44444444----------------------------------------------4-------|
D|--------44444444-6666666-22222222-666666-444444-22222---------|


Outro Chorus

G|---------------------------------------------------------------|
D|---------------------------------------------------------------|
A|4---------------6-4-----------------------------------6-4------|
D|-4444444-6666666---4-222222-66666666-4444444-222222-4-----4-6-4|

G|-----------------------------------------------------------------|
D|----------------------------------------------------6--44444---4x|
A|44444444--------------------------------6-4-------4---4------4---|
D|--------44444444-6666666-2222222-666666-----4-222----------------|


Thanks !


| /  slide up
| \  slide down
| h  hammer-on
| p  pull-off
| ~  vibrato
| +  harmonic
| x  Mute note
===============================================================================
comments
print report bad tab
I want to post or [tab]
guest
You may want to rate the tab now too:
select rating
Please do not post tabs as comments. Select "correction" instead!