Oops, an error
Loading. Please wait.

Break Your Little Heart Tab

version 2
version 2
162,795 views 225 this week
13 commentsread comments
1 2 3 4 5
excellent!
x 43
add to favorites
launch autoscroll
font size
0
reset
how to read this tab
guitar tuner
Tab Pro tools
  • play this tab
  • loop segment
  • change instrument
  • show fretboard
  • metronome
×
Best way to learn
"Break Your Little Heart"
Autoscroll
slow
fast
+/-
esc
set tempo
stop
Contributor
Difficulty
Tuning
intermediate
D A D G B E
-------------------------------------------------------------------------------
                    Break Your Little Heart - All Time Low
-------------------------------------------------------------------------------

Tabbed by:    Christopher Airey
Email:        cairey@gmail.com

Here's my tab for Break Your Little Heart

Tunings:

Guitar 1: Drop-D
Guitar 2: Drop-D
Guitar 3: Standard/Drop-D

[Intro/Bridge]

Guitar 1:

e|------------------------------------------------------------------------|
B|------------------------------------------------------------------------|
G|----------------------------------------------6-------------------------|
D|-4--4-4-------6--6-6-------8--8-8-------8--8--6-6-----------------------|
A|-4--4-4-------6--6-6-------8--8-8-------8--8--4-6-----------------------|
D|-4--4-4-------6--6-6-------8--8-8-------8--8----6-----------------------|

Guitar 2:

e|------------------------------------------------------------------------|
B|------------------------------------------------------------------------|
G|------------------------------------------------------------------------|
D|--6-4-3--------6-4-3--------6-4-3---------------------------------------|
A|---------------------6-4----------------------8-6-----------------------|
D|------------------------------------------------------------------------|

Guitar 1:

e|------------------------------------------------------------------------|
B|------------------------------------------------------------------------|
G|----------------------------------------------6-------------------------|
D|-4--4-4-------6--6-6-------8--8-8-------8--8--6-6-----------------------|
A|-4--4-4-------6--6-6-------8--8-8-------8--8--4-6-----------------------|
D|-4--4-4-------6--6-6-------8--8-8-------8--8----6-----------------------|

Guitar 2:

e|------------------------------------------------------------------------|
B|------------------------------------------------------------------------|
G|------------------------------------------------------------------------|
D|--6-4-3--------6-4-3--------6-4-3-------------3-------------------------|
A|---------------------6-4------------------------6-----------------------|
D|------------------------------------------------------------------------|

[Verse 1]

Lyrics:

| Wide awake, my mistake, so predictable. You were fake. I was great,
| nothing personal. I'm walking. Who's laughing now?

Guitar 1:

                                     XXXXXX XXXXXXXX XXXXXXXXXXXX
e|------------------------------------------------------------------------|
B|------------------------------------------------------------------------|
G|--------------6-------------6-----------------------------------6-------|
D|-4------------6-6-8---------6-6-4--444444-66666666-888888888888-6--6-4--|
A|-4------------4-6-8---------4-6-4--444444-66666666-888888888888-4--6-4--|
D|-4--------------6-8-----------6-4--444444-66666666-888888888888----6-4--|

Guitar 2:

e|------------------------------------------------------------------------|
B|------------------------------------------------------------------------|
G|-66666666666666666666666666666666-------------------------------10-8-6--|
D|------------------------------------------------------------------------|
A|----------------------------------------------------------------8--6-4--|
D|------------------------------------------------------------------------|


[Refrain]

| I'm wasted, wasting time. Talk for hours, but you're wasting lines.
| A pretty face, but the chase ain't work the prize.

Guitar 1:

                                     XXXXXX XXXXXXXX XXXXXXXXXXXX
e|------------------------------------------------------------------------|
B|------------------------------------------------------------------------|
G|--------------6-------------6-------------------------------------------|
D|--------------6-6-8---------6-6-4--444444-66666666-4444444444444--------|
A|--------------4-6-8---------4-6-4--444444-66666666-4444444444444--------|
D|----------------6-8-----------6-4--444444-66666666-4444444444444--------|

Guitar 2:

e|------------------------------------------------------------------------|
B|------------------------------------------------------------------------|
G|-6666666666666666666666666666666666666666555555556666666666666----------|
D|------------------------------------------------------------------------|
A|------------------------------------------------------------------------|
D|------------------------------------------------------------------------|


[Chorus]

| I'm gonna break your little heart, watch you take the fall, laugh it all
| the way to the hospital. Cause there's nothing surgery can do when I
| break your little heart in two.

Guitar 1:

e|------------------------------------------------------------------------|
B|------------------------------------------------------------------------|
G|-66666666---------------------------------------------------------------|
D|-66666666-66666666-88888888-44444444--88888888-66666666-444444444-------|
A|-44444444-66666666-88888888-44444444--88888888-66666666-444444444-------|
D|----------66666666-88888888-44444444--88888888-66666666-444444444-------|

Guitar 2:

e|------------------------------------------------------------------------|
B|-14x32--11x32--14x16--13x16--14x16--------------------------------------|
G|------------------------------------------------------------------------|
D|------------------------------------------------------------------------|
A|------------------------------------------------------------------------|
D|------------------------------------------------------------------------|


[Bridge]

| I'm gonna break your little heart in two.

Guitar 1:

e|------------------------------------------------------------------------|
B|------------------------------------------------------------------------|
G|----------------------------------------------6-------------------------|
D|-4--4-4-------6--6-6-------8--8-8-------8--8--6-6-----------------------|
A|-4--4-4-------6--6-6-------8--8-8-------8--8--4-6-----------------------|
D|-4--4-4-------6--6-6-------8--8-8-------8--8----6-----------------------|

Guitar 2:

e|------------------------------------------------------------------------|
B|------------------------------------------------------------------------|
G|------------------------------------------------------------------------|
D|--6-4-3--------6-4-3--------6-4-3---------------------------------------|
A|---------------------6-4----------------------8-6-----------------------|
D|------------------------------------------------------------------------|

Guitar 1:

e|------------------------------------------------------------------------|
B|------------------------------------------------------------------------|
G|----------------------------------------------6-------------------------|
D|-4--4-4-------6--6-6-------8--8-8-------8--8--6-6-----------------------|
A|-4--4-4-------6--6-6-------8--8-8-------8--8--4-6-----------------------|
D|-4--4-4-------6--6-6-------8--8-8-------8--8----6-----------------------|

Guitar 2:

e|------------------------------------------------------------------------|
B|------------------------------------------------------------------------|
G|------------------------------------------------------------------------|
D|--6-4-3--------6-4-3--------6-4-3-------------3-------------------------|
A|---------------------6-4------------------------6-----------------------|
D|------------------------------------------------------------------------|

[Verse 2]

| Party queen, cause a scene, so ridiculous. Little dress, maybe less, 
| so conspicuous. You're falling. Who's crashing now?

Guitar 1:

                            XXXXXX                   XXXXXXXX 
e|------------------------------------------------------------------------|
B|------------------------------------------------------------------------|
G|--------6----------6----------------------------------------------------|
D|-4------6-6-8------6-6-4--444444-------------------66666666-------------|
A|-4------4-6-8------4-6-4--444444-------------------66666666-------------|
D|-4--------6-8--------6-4--444444-------------------66666666-------------|

Guitar 2:


e|------------------------------------------------------------------------|
B|------------------------------------------------------------------------|
G|-666666666666666666666666-----------------------------------------------|
D|------------------------------------------------------------------------|
A|------------------------------------------------------------------------|
D|------------------------------------------------------------------------|

Guitar 3:

e|------------------------------------16----------------------16----------|
B|---------------------------13-14-13----14-13-------13-14-13----14-13-14-|
G|---------------------------------------------13-------------------------|
D|------------------------------------------------------------------------|
A|------------------------------------------------------------------------|
D|------------------------------------------------------------------------|

Guitar 1:

   XXXXXXXXXXXX
e|------------------------------------------------------------------------|
B|------------------------------------------------------------------------|
G|------------------------6-----------------------------------------------|
D|-888888888888-----------6--6-8------------------------------------------|
A|-888888888888-----------4--6-8------------------------------------------|
D|-888888888888--------------6-8------------------------------------------|

Guitar 3:

e|------------------------------------13----------------------------------|
B|-13-14-13-14-14-13-14---13-14-13-16-------------------------------------|
G|------------------------------------------------------------------------|
D|------------------------------------------------------------------------|
A|------------------------------------------------------------------------|
D|------------------------------------------------------------------------|


[Refrain 2]

| I'm wasted, wasting time. I'm moving on, but you're left behind. A
| pretty face, but the chase ain't worth the prize.

Guitar 1:

                            XXXXXX                   XXXXXXXX 
e|------------------------------------------------------------------------|
B|------------------------------------------------------------------------|
G|---------6---------6----------------------------------------------------|
D|---------6-6-8-----6-6-4--444444-------------------66666666-------------|
A|---------4-6-8-----4-6-4--444444-------------------66666666-------------|
D|-----------6-8-------6-4--444444-------------------66666666-------------|

Guitar 2:

e|------------------------------------------------------------------------|
B|------------------------------------------------------------------------|
G|--------------------------6666666666666666---------5555555555555555-----|
D|------------------------------------------------------------------------|
A|------------------------------------------------------------------------|
D|------------------------------------------------------------------------|

Guitar 3:

e|------------------------------------------------------------16----------|
B|---------------------------13-14-13-14-14-13-------13-14-13----14-13-14-|
G|---------------------------------------------13-------------------------|
D|------------------------------------------------------------------------|
A|------------------------------------------------------------------------|
D|------------------------------------------------------------------------|

Guitar 1:

   XXXXXXXXXXXX
e|------------------------------------------------------------------------|
B|------------------------------------------------------------------------|
G|------------------------------------------------------------------------|
D|-4444444444444----------------------------------------------------------|
A|-4444444444444----------------------------------------------------------|
D|-4444444444444----------------------------------------------------------|

Guitar 2:

e|------------------------------------------------------------------------|
B|------------------------------------------------------------------------|
G|-6666666666666666-------------------------------------------------------|
D|------------------------------------------------------------------------|
A|------------------------------------------------------------------------|
D|------------------------------------------------------------------------|

Guitar 3:

e|------------------------------------------------------------------------|
B|-13-14-13-14-14-13-14---13-14-13-14-------------------------------------|
G|------------------------------------------------------------------------|
D|------------------------------------------------------------------------|
A|------------------------------------------------------------------------|
D|------------------------------------------------------------------------|


[Chorus 2]

| I'm gonna break your little heart, watch you take the fall, laugh it all
| the way to the hospital. Cause there's nothing surgery can do.

Guitar 1:

e|------------------------------------------------------------------------|
B|------------------------------------------------------------------------|
G|-66666666---------------------------------------------------------------|
D|-66666666-66666666-88888888-44444444-88888888-66666666-44444444444444444|
A|-44444444-66666666-88888888-44444444-88888888-66666666-44444444444444444|
D|----------66666666-88888888-44444444-88888888-66666666-44444444444444444|

Guitar 2:

e|------------------------------------------------------------------------|
B|-14x32--11x32--14x16--13x16--14x16--------------------------------------|
G|------------------------------------------------------------------------|
D|------------------------------------------------------------------------|
A|------------------------------------------------------------------------|
D|------------------------------------------------------------------------|

| I'm gonna break your little heart, show you to the door, sew yourself
| shut and now you're begging for more. Cause there's nothing surgery 
| can do when I break your little heart in two.

Guitar 1:

e|------------------------------------------------------------------------|
B|------------------------------------------------------------------------|
G|-66666666---------------------------------------------------------------|
D|-66666666-66666666-88888888-44444444--88888888-66666666-444444444-------|
A|-44444444-66666666-88888888-44444444--88888888-66666666-444444444-------|
D|----------66666666-88888888-44444444--88888888-66666666-444444444-------|

Guitar 2:

e|------------------------------------------------------------------------|
B|-14x32--11x32--14x16--13x16--14x16--------------------------------------|
G|------------------------------------------------------------------------|
D|------------------------------------------------------------------------|
A|------------------------------------------------------------------------|
D|------------------------------------------------------------------------|


[Bridge 2]

| Don't be so sentimental, no. This love is accidental so give it up,
| this was never meant to be more than a memory for you.

Guitar 1:

e|------------------------------------------------------------------------|
B|------------------------------------------------------------------------|
G|-------------------66666666----------------------------6-6--------------|
D|-88888888-44444444-66666666-66666666-88888888-44444444-6-6-6------------|
A|-88888888-44444444-44444444-66666666-88888888-44444444-4-4-6------------|
D|-88888888-44444444----------66666666-88888888-44444444-----6------------|

Guitar 2:

e|------------------------------------------------------------------------|
B|------------------------------------------------------------------------|
G|-------------------------------------------------------11-10-8-8-8-10-8-|
D|------------------------------------------------------------------------|
A|------------------------------------------------------------------------|
D|------------------------------------------------------------------------|

Guitar 3:

e|-------16-------16------------------------------------------------------|
B|-13-14----13-14----13-14-13-14-13-14-14-14-13---------------------------|x3
G|----------------------------------------------13------------------------|
D|------------------------------------------------------------------------|
A|------------------------------------------------------------------------|
D|------------------------------------------------------------------------|


[Solo]

Guitar 1:

e|------------------------------------------------------------------------|
B|------------------------------------------------------------------------|
G|------------------------------------------------13-13-13----------------|
D|-11-11--11-11-----10-10--10-----8-10-11------------------10-10-10-11----|
A|--------------11------------11----------11-9-8--------------------------|
D|------------------------------------------------------------------------|

Guitar 2:

e|------------------------------------------------------------------------|
B|------------------------------------------------------------------------|
G|-66666666---------------------------------------------------------------|
D|-66666666-66666666-88888888-44444444-88888888---------------------------|
A|-44444444-66666666-88888888-44444444-88888888---------------------------|
D|----------66666666-88888888-44444444-88888888---------------------------|

Guitar 1:

e|------------------------------------------------------------------------|
B|------------------------------------------------------------------------|
G|-13-13-13-------------13-------13-------13-------13-15-17-18------------|
D|----------10-10-10-11----10-11----10-11----10-11------------------------|
A|------------------------------------------------------------------------|
D|------------------------------------------------------------------------|

Guitar 2:

e|------------------------------------------------------------------------|
B|------------------------------------------------------------------------|
G|------------------------------------------------------------------------|
D|-66666666-44444444------------------------------------------------------|
A|-66666666-44444444------------------------------------------------------|
D|-66666666-44444444------------------------------------------------------|


[Chorus 3]

| I'm gonna break your little heart, watch you take the fall, laugh it all
| the way to the hospital. Cause there's nothing surgery can do.

Guitar 1:

e|------------------------------------------------------------------------|
B|------------------------------------------------------------------------|
G|------------------------------------------------------------------------|
D|----------66666666-88888888-44444444-88888888-66666666-44444444444444444|
A|----------66666666-88888888-44444444-88888888-66666666-44444444444444444|
D|----------66666666-88888888-44444444-88888888-66666666-44444444444444444|

Guitar 2:

e|------------------------------------------------------------------------|
B|----------14x16--11x32--14x16--13x16--14x16-----------------------------|
G|------------------------------------------------------------------------|
D|------------------------------------------------------------------------|
A|------------------------------------------------------------------------|
D|------------------------------------------------------------------------|

| I'm gonna break your little heart, show you to the door, sew yourself
| shut and now you're begging for more. Cause there's nothing surgery 
| can do when I break your little heart in two.

Guitar 1:

e|------------------------------------------------------------------------|
B|------------------------------------------------------------------------|
G|-66666666---------------------------------------------------------------|
D|-66666666-66666666-88888888-44444444--88888888-66666666-444444444-------|
A|-44444444-66666666-88888888-44444444--88888888-66666666-444444444-------|
D|----------66666666-88888888-44444444--88888888-66666666-444444444-------|

Guitar 2:

e|------------------------------------------------------------------------|
B|-14x32--11x32--14x16--13x16--14x16--------------------------------------|
G|------------------------------------------------------------------------|
D|------------------------------------------------------------------------|
A|------------------------------------------------------------------------|
D|------------------------------------------------------------------------|

[end]
comments
print report bad tab
13 comments total. Showing first comments.
0 reply
thesnowpirate wrote on July 8 2009, 02:02 pm

GP coming soon partner!

0 reply
n.q.n wrote on July 9 2009, 12:21 am

great tab
sounds correct

0 reply
22aj11 wrote on July 12 2009, 08:36 pm

really good. i play it in standard but oh well =) nice work

one thing though- u made a small mistake in the intro/brigde for guitar one. it should be:

e|------------------------------------------------------------------------|
B|------------------------------------------------------------------------|
G|----------------------------------------------6-------------------------|
D|-4--4-4-------6--6-6-------8--8-8-------8--8--6-6-----------------------|
A|-4--4-4-------6--6-6-------8--8-8-------8--8--4-6-----------------------|
D|-4--4-4-------6--6-6-------8--8-8-------8--8----6-----------------------|

^you accidentally made the fifth string a D instead of A

I want to post or [tab]
guest
You may want to rate the tab now too:
select rating
Please do not post tabs as comments. Select "correction" instead!