Oops, an error
Loading. Please wait.

Break Your Little Heart Tab

version 4
version 4
1,389 views 1 this week
no commentswrite comment
1 2 3 4 5
please rate
add to favorites
launch autoscroll
font size
0
reset
how to read this tab
guitar tuner
Tab Pro tools
  • play this tab
  • loop segment
  • change instrument
  • show fretboard
  • metronome
×
Best way to learn
"Break Your Little Heart"
Autoscroll
slow
fast
+/-
esc
set tempo
stop
Contributor
Difficulty
Tuning
novice
D A D G B E
	The Blackout

	Top of the World


	Lead Guitar Version


Intro/Chorus
e|16---13--------------16---13--------------14p13-------14p13--------------|
B|---14---14--------------14---14-----------------14----------14---------14|
G|-----------13-15-13-------------13-15-13-----------13----------13---11---|
D|-------------------------------------------------------------------------|
A|-------------------------------------------------------------------------|
D|-------------------------------------------------------------------------|
									x2

Verse
e|-------------------------------------------------------------------------|
B|-------------------------------------------------------------------------|
G|-6666-666------------------------------66666-666-------------------------|
D|-6666-666-44444-444-88888-886-444-446--66666-666-44444-444-88888-886-4~--|
A|-4444-444-44444-444-88888-886-444-446--44444-444-44444-444-88888-886~4~--|
D|----------44444-444-88888-886-444-446------------44444-444-88888-886-4~--|


Intro/Chorus
e|16---13--------------16---13--------------14p13-------14p13--------------|
B|---14---14--------------14---14-----------------14----------14---------14|
G|-----------13-15-13-------------13-15-13-----------13----------13---11---|
D|-------------------------------------------------------------------------|
A|-------------------------------------------------------------------------|
D|-------------------------------------------------------------------------|
									x2


Verse
e|-------------------------------------------------------------------------|
B|-------------------------------------------------------------------------|
G|-6666-666------------------------------66666-666-------------------------|
D|-6666-666-44444-444-88888-886-444-446--66666-666-44444-444-88888-886-4~--|
A|-4444-444-44444-444-88888-886-444-446--44444-444-44444-444-88888-886~4~--|
D|----------44444-444-88888-886-444-446------------44444-444-88888-886-4~--|

Intro/Chorus
e|16---13--------------16---13--------------14p13-------14p13--------------|
B|---14---14--------------14---14-----------------14----------14---------14|
G|-----------13-15-13-------------13-15-13-----------13----------13---11---|
D|-------------------------------------------------------------------------|
A|-------------------------------------------------------------------------|
D|-------------------------------------------------------------------------|
									x2

Bridge pt1
e|-------------------------------------------------------------------------|
B|-------------------------------------------------------------------------|
G|-------------------------------------------------------------------------|
D|--1--1--1-3--4--4--4-4---1--1--1-3--4--4--4444444444444444---------------|
A|--1--1--1-3--4--4--4-4---1--1--1-3--4--4--4444444444444444---------------|
D|--1--1--1-3--4--4--4-4---1--1--1-3--4--4--4444444444444444---------------|
                                            PM--------------|

Bridge pt2
e|-----16-14p13--------16-14p13---------16-14p13---------------------------|
B|--------------14--------------14---------------14------------------------|
G|-13---------------13---------------13--------------13--15-13-------------|
D|-------------------------------------------------------------------------|
A|-------------------------------------------------------------------------| 
D|-------------------------------------------------------------------------|
									x2

Bridge pt3
e|-------------------------------------------------------------------------|
B|-------------------------------------------------------------------------|
G|-6--------------66666666-------------------------------------------------|
D|-6--4--8--6-4---66666666-44444444-8888-6666-4444-------------------------|
A|-4--4--8--6-4---44444444-44444444-8888-6666-4444-------------------------|
D|----4--8--6-4------------44444444-8888-6666-4444-------------------------|
                 PM------------------------------|


Intro/Chorus
e|16---13--------------16---13--------------14p13-------14p13--------------|
B|---14---14--------------14---14-----------------14----------14--------#14|
G|-----------13-15-13-------------13-15-13-----------13----------13---11---|
D|-------------------------------------------------------------------------|
A|-------------------------------------------------------------------------|
D|-------------------------------------------------------------------------|
									x4
						#14 dont play 4th time


End
comments
We did not receive enough feedback on this tab! Please rate:
print report bad tab
1 2 3 4 5
I want to post or [tab]
guest
You may want to rate the tab now too:
select rating
Please do not post tabs as comments. Select "correction" instead!