Oops, an error
Loading. Please wait.

Break Your Little Heart Tab

version 5
version 5
2,223 views 3 this week
no commentswrite comment
1 2 3 4 5
please rate
add to favorites
launch autoscroll
font size
0
reset
how to read this tab
guitar tuner
Tab Pro tools
  • play this tab
  • loop segment
  • change instrument
  • show fretboard
  • metronome
×
Best way to learn
"Break Your Little Heart"
Autoscroll
slow
fast
+/-
esc
set tempo
stop
Contributor
Difficulty
Tuning
novice
D A D G B E
Song: Break Your Little Heart
Artist: All Time Low
Album: Nothing Personal

This tab is strictly for rhythym guitar throughout the song. I don't know if it
changes from guitarist to guitarist thoughout the song, but

Tuning:
 Drop-D

[Intro/Bridge]



e|------------------------------------------------------------------------|
B|------------------------------------------------------------------------|
G|----------------------------------------------6-------------------------|
D|-4--4-4-------6--6-6-------8--8-8-------8--8--6-6-----------------------|
A|-4--4-4-------6--6-6-------8--8-8-------8--8--4-6-----------------------|
D|-4--4-4-------6--6-6-------8--8-8-------8--8----6-----------------------|


e|------------------------------------------------------------------------|
B|------------------------------------------------------------------------|
G|----------------------------------------------6-------------------------|
D|-4--4-4-------6--6-6-------8--8-8-------8--8--6-6-----------------------|
A|-4--4-4-------6--6-6-------8--8-8-------8--8--4-6-----------------------|
D|-4--4-4-------6--6-6-------8--8-8-------8--8----6-----------------------|



[Verse 1]

 Wide awake, my mistake, so predictable. You were fake. I was great,
 nothing personal. I'm walking. Who's laughing now?



                                     XXXXXX XXXXXXXX XXXXXXXXXXXX
e|------------------------------------------------------------------------|
B|------------------------------------------------------------------------|
G|--------------6-------------6-----------------------------------6-------|
D|-4------------6-6-8---------6-6-4--444444-66666666-888888888888-6--6-4--|
A|-4------------4-6-8---------4-6-4--444444-66666666-888888888888-4--6-4--|
D|-4--------------6-8-----------6-4--444444-66666666-888888888888----6-4--|




 I'm wasted, wasting time. Talk for hours, but you're wasting lines.
 A pretty face, but the chase ain't work the prize.



                                     XXXXXX XXXXXXXX XXXXXXXXXXXX
e|------------------------------------------------------------------------|
B|------------------------------------------------------------------------|
G|--------------6-------------6-------------------------------------------|
D|--------------6-6-8---------6-6-4--444444-66666666-4444444444444--------|
A|--------------4-6-8---------4-6-4--444444-66666666-4444444444444--------|
D|----------------6-8-----------6-4--444444-66666666-4444444444444--------|



[Chorus]
 I'm gonna break your little heart, watch you take the fall, laugh it all
 the way to the hospital. Cause there's nothing surgery can do when I
 break your little heart in two.



e|------------------------------------------------------------------------|
B|------------------------------------------------------------------------|
G|-66666666---------------------------------------------------------------|
D|-66666666-66666666-88888888-44444444--88888888-66666666-444444444-------|
A|-44444444-66666666-88888888-44444444--88888888-66666666-444444444-------|
D|----------66666666-88888888-44444444--88888888-66666666-444444444-------|



[Bridge]

 I'm gonna break your little heart in two.

e|------------------------------------------------------------------------|
B|------------------------------------------------------------------------|
G|----------------------------------------------6-------------------------|
D|-4--4-4-------6--6-6-------8--8-8-------8--8--6-6-----------------------|
A|-4--4-4-------6--6-6-------8--8-8-------8--8--4-6-----------------------|
D|-4--4-4-------6--6-6-------8--8-8-------8--8----6-----------------------|

e|------------------------------------------------------------------------|
B|------------------------------------------------------------------------|
G|----------------------------------------------6-------------------------|
D|-4--4-4-------6--6-6-------8--8-8-------8--8--6-6-----------------------|
A|-4--4-4-------6--6-6-------8--8-8-------8--8--4-6-----------------------|
D|-4--4-4-------6--6-6-------8--8-8-------8--8----6-----------------------|


[Verse 2]

 Party queen, cause a scene, so ridiculous. Little dress, maybe less,
 so conspicuous. You're falling. Who's crashing now?

                            XXXXXX                   XXXXXXXX
e|------------------------------------------------------------------------|
B|------------------------------------------------------------------------|
G|--------6----------6----------------------------------------------------|
D|-4------6-6-8------6-6-4--444444-------------------66666666-------------|
A|-4------4-6-8------4-6-4--444444-------------------66666666-------------|
D|-4--------6-8--------6-4--444444-------------------66666666-------------|

   XXXXXXXXXXXX
e|------------------------------------------------------------------------|
B|------------------------------------------------------------------------|
G|------------------------6-----------------------------------------------|
D|-888888888888-----------6--6-8------------------------------------------|
A|-888888888888-----------4--6-8------------------------------------------|
D|-888888888888--------------6-8------------------------------------------|



[Refrain 2]

 I'm wasted, wasting time. I'm moving on, but you're left behind. A
 pretty face, but the chase ain't worth the prize.

                            XXXXXX                   XXXXXXXX
e|------------------------------------------------------------------------|
B|------------------------------------------------------------------------|
G|---------6---------6----------------------------------------------------|
D|---------6-6-8-----6-6-4--444444-------------------66666666-------------|
A|---------4-6-8-----4-6-4--444444-------------------66666666-------------|
D|-----------6-8-------6-4--444444-------------------66666666-------------|

   XXXXXXXXXXXX
e|------------------------------------------------------------------------|
B|------------------------------------------------------------------------|
G|------------------------------------------------------------------------|
D|-4444444444444----------------------------------------------------------|
A|-4444444444444----------------------------------------------------------|
D|-4444444444444----------------------------------------------------------|



[Chorus 2]

 I'm gonna break your little heart, watch you take the fall, laugh it all
 the way to the hospital. Cause there's nothing surgery can do.

e|------------------------------------------------------------------------|
B|------------------------------------------------------------------------|
G|-66666666---------------------------------------------------------------|
D|-66666666-66666666-88888888-44444444-88888888-66666666-44444444444444444|
A|-44444444-66666666-88888888-44444444-88888888-66666666-44444444444444444|
D|----------66666666-88888888-44444444-88888888-66666666-44444444444444444|



 I'm gonna break your little heart, show you to the door, sew yourself
 shut and now you're begging for more. Cause there's nothing surgery
 can do when I break your little heart in two.


e|------------------------------------------------------------------------|
B|------------------------------------------------------------------------|
G|-66666666---------------------------------------------------------------|
D|-66666666-66666666-88888888-44444444--88888888-66666666-444444444-------|
A|-44444444-66666666-88888888-44444444--88888888-66666666-444444444-------|
D|----------66666666-88888888-44444444--88888888-66666666-444444444-------|



[Bridge 2]

 Don't be so sentimental, no. This love is accidental so give it up,
 this was never meant to be more than a memory for you.

Guitar 1:

e|------------------------------------------------------------------------|
B|------------------------------------------------------------------------|
G|-------------------66666666----------------------------6-6--------------|
D|-88888888-44444444-66666666-66666666-88888888-44444444-6-6-6------------|
A|-88888888-44444444-44444444-66666666-88888888-44444444-4-4-6------------|
D|-88888888-44444444----------66666666-88888888-44444444-----6------------|



[Solo]

e|------------------------------------------------------------------------|
B|------------------------------------------------------------------------|
G|-66666666---------------------------------------------------------------|
D|-66666666-66666666-88888888-44444444-88888888---------------------------|
A|-44444444-66666666-88888888-44444444-88888888---------------------------|
D|----------66666666-88888888-44444444-88888888---------------------------|


e|------------------------------------------------------------------------|
B|------------------------------------------------------------------------|
G|------------------------------------------------------------------------|
D|-66666666-44444444------------------------------------------------------|
A|-66666666-44444444------------------------------------------------------|
D|-66666666-44444444------------------------------------------------------|


[Chorus 3]
 I'm gonna break your little heart, watch you take the fall, laugh it all
 the way to the hospital. Cause there's nothing surgery can do.

e|------------------------------------------------------------------------|
B|------------------------------------------------------------------------|
G|------------------------------------------------------------------------|
D|----------66666666-88888888-44444444-88888888-66666666-44444444444444444|
A|----------66666666-88888888-44444444-88888888-66666666-44444444444444444|
D|----------66666666-88888888-44444444-88888888-66666666-44444444444444444|


 I'm gonna break your little heart, show you to the door, sew yourself
 shut and now you're begging for more. Cause there's nothing surgery
 can do when I break your little heart in two.


e|------------------------------------------------------------------------|
B|------------------------------------------------------------------------|
G|-66666666---------------------------------------------------------------|
D|-66666666-66666666-88888888-44444444--88888888-66666666-444444444-------|
A|-44444444-66666666-88888888-44444444--88888888-66666666-444444444-------|
D|----------66666666-88888888-44444444--88888888-66666666-444444444-------|

[End]
comments
We did not receive enough feedback on this tab! Please rate:
print report bad tab
1 2 3 4 5
I want to post or [tab]
guest
You may want to rate the tab now too:
select rating
Please do not post tabs as comments. Select "correction" instead!