Oops, an error
Loading. Please wait.

Break Your Little Heart Tab

version 6
version 6
1,305 views 9 this week
no commentswrite comment
1 2 3 4 5
please rate
add to favorites
launch autoscroll
font size
0
reset
how to read this tab
guitar tuner
Autoscroll
slow
fast
+/-
esc
set tempo
stop
Help us to improve Ultimate-Guitar.com Take our survey!
×
Author
Difficulty
Tuning
intermediate
D A D G B E
My first tab but its sounds good to me!

 INTRO
E|-----------------------------------------------------|--
B|-----------------------------------------------------|--
G|-----------------------------------------------------|--
D|--4--6--4--3--6--6--4--3--------8--6--4--3--8--3-----|--
A|--4-----------6-----------6--4--8-----------8-----6--|--
E|--4-----------6-----------------8-----------8--------|--

  VERSE

E|-----------------------------------------------------------|--
B|-----------------------------------------------------------|--
G|--6--6--------6--6--------------6--------6--6--------------|--
D|-----6--6--8-----6--6--4--6--8--6--6--8-----6--6--4--6--4--|--
A|--4--4--6--8--4--4--6--4--6--8--4--6--8--4--4--6--4--6--4--|--
E|--------6--8--------6--4--6--8--8--6--8--------6--4--6--4--|--

  CHORUS

E|--------------------|--
B|--------------------|--
G|--6-----------------|--
D|--6--6--8--4--8--6--|--
A|--4--6--8--4--8--6--|--
E|-----6--8--4--8--6--|--


   BRIDGE
E|--------------|--
B|--------------|--
G|--------6-----|--
D|--8--4--6--6--|--
A|--8--4--4--6--|--
E|--8--4-----6--|--


SOLO


E|--------------------------------------------------|--
B|--------------------------------------------------|--
G|--------------------------------------------------|--
D|--6--6--6-----5--5--5-----3--5--6-----------------|--
A|-----------6-----------6-----------6--6--6--5--3--|--
E|--------------------------------------------------|--


E|------------------------------------------------------------------|--
B|------------------------------------------------------------------|--
G|--13--13--13----------------------13--13--13----------------------|--
D|--------------10--10--10--11--11--------------10--10--10--11--11--|--
A|------------------------------------------------------------------|--
E|------------------------------------------------------------------|--


E|-------------------------------------------------|--
B|------------------------------------------13h14--|--
G|--13----------13----------13----------13---------|--
D|------10--11------10--11------10--11-------------|--
A|-------------------------------------------------|--
E|-------------------------------------------------|--

ORDER:

INTRO x2
VERSE
CHORUS 
INTRO x2
VERSE
CHORUS x2
BRIDGE x2
SOLO 
CHORUS x2 (on the first time don't play the C#)
END






Suggest correction
What's this?
You can suggest a correction to this tab. Community and Mods will review your correction and vote to approve or reject it.
comments
We did not receive enough feedback on this tab! Please rate:
print report bad tab
1 2 3 4 5
guest
You may want to rate the tab now too:
select rating
Please do not post tabs as comments. Select "correction" instead!