Oops, an error
Loading. Please wait.

Canals Bass Tab

version 1
version 1

Whole song

Interactive

1,488 views 6 this week
1 commentread comment
1 2 3 4 5
excellent!
x 3
add to favorites
launch autoscroll
font size
0
reset
guitar tuner
Autoscroll
slow
fast
+/-
esc
set tempo
stop
Help us to improve Ultimate-Guitar.com Take our survey!
×
Author
Difficulty
Tuning
intermediate
C# G# C# F# A# D#
0:17 Verse
F#|---------------------------------------------------------------------|
C#|o--------------------------3-5-6-3----------------------------------o|
G#|o--3-------3-5-6-3-8---------------6-------6-8-9-6-1-------1-3-5----o|
C#|---------------------------------------------------------------------|
      1 2 3 4 1 2 3 4 1 2 3 4 1 2 3 4 1 2 3 4 1 2 3 4 1 2 3 4 1 2 3 4 

0:33
C#|----------------------------------------------------------------|
C#|----------------------------------------------------------------|
G#|-15--------------15--15----------15--------------15--15---------|
C#|---------------------------------------------------------------\|
    1 + 2 + 3 + 4 + 1 + 2 + 3 + 4 + 1 + 2 + 3 + 4 + 1 + 2 + 3 + 4 +

0:36 Chorus x2
F#|------------------------------------------------------------------|
C#|o-----------------------------------------------------------------|
G#|o-------------------------------------------------3-3-3-3-6-6-5---|
C#|--6-6-6-6-6-6-6-6-1-1-1-1-1-1-1-1-5-5-5-5-5-5-5-5---------------8-|
     1 + 2 + 3 + 4 + 1 + 2 + 3 + 4 + 1 + 2 + 3 + 4 + 1 + 2 + 3 + 4 +

F#|------------------------------------------------------------------|
C#|--------------------------------------------------------------5--o|
G#|---------------------------------1-1-1-1-1-1-1-1---------------5-o|
C#|-6-6-6-6-6-6-6-6-1-1-1-1-1-1-1-1-----------------55-55-55-55------|
    1 + 2 + 3 + 4 + 1 + 2 + 3 + 4 + 1 + 2 + 3 + 4 + 1 + 2 + 3 + 4 +

1:05
F#|-----------------------------------------------------------------|
C#|-------------------------3-5-6-3---------------------------------|
G#|-3-------3-5-6-3-8---------------6-------6-8-9-6-1-------1-3-5---|
C#|-----------------------------------------------------------------|
    1 2 3 4 1 2 3 4 1 2 3 4 1 2 3 4 1 2 3 4 1 2 3 4 1 2 3 4 1 2 3 4 

1:12
F#|-----------------------------------------------------------------|
C#|-----------------------------------------------------------------|
G#|-3-----------------------------------------------1-------1-3-5---|
C#|-------------------------------12\-1-----1-3-4-1-----------------|
    1 2 3 4 1 2 3 4 1 2 3 4 1 2 3 4 1 2 3 4 1 2 3 4 1 2 3 4 1 2 3 4 

1:20
F#|-----------------------------------------------------------------|
C#|-----------------------------------------------------------------|
G#|-3-------3-5-6-3-----------------6-------6-8-9-6-1-------1-3-5---|
C#|-----------------3-------3-5-6-3---------------------------------|
    1 2 3 4 1 2 3 4 1 2 3 4 1 2 3 4 1 2 3 4 1 2 3 4 1 2 3 4 1 2 3 4 

1:27
F#|---------------------------------------------------------------------|
C#|o--------------------------3-5-6-3----------------------------------o|
G#|o--3-------3-5-6-3-8---------------6-------6-8-9-6-1-------1-3-5----o|
C#|---------------------------------------------------------------------|x2
      1 2 3 4 1 2 3 4 1 2 3 4 1 2 3 4 1 2 3 4 1 2 3 4 1 2 3 4 1 2 3 4 

1:42
C#|----------------------------------------------------------------|
C#|----------------------------------------------------------------|
G#|-15--------------15--15----------15--------------15--15---------|
C#|---------------------------------------------------------------\|
    1 + 2 + 3 + 4 + 1 + 2 + 3 + 4 + 1 + 2 + 3 + 4 + 1 + 2 + 3 + 4 +

1:46 Chorus x2
F#|------------------------------------------------------------------|
C#|o-----------------------------------------------------------------|
G#|o-------------------------------------------------3-3-3-3-6-6-5---|
C#|--6-6-6-6-6-6-6-6-1-1-1-1-1-1-1-1-5-5-5-5-5-5-5-5---------------8-|
     1 + 2 + 3 + 4 + 1 + 2 + 3 + 4 + 1 + 2 + 3 + 4 + 1 + 2 + 3 + 4 +

F#|------------------------------------------------------------------|
C#|--------------------------------------------------------------5--o|
G#|---------------------------------1-1-1-1-1-1-1-1---------------5-o|
C#|-6-6-6-6-6-6-6-6-1-1-1-1-1-1-1-1-----------------55-55-55-55------|
    1 + 2 + 3 + 4 + 1 + 2 + 3 + 4 + 1 + 2 + 3 + 4 + 1 + 2 + 3 + 4 +


2:15 Bridge
F#|---------------------------------------------------------------------|
C#|o-------------------------------------------------------------------o|
G#|o--------------------------------------------------1-1-1-1-1-1-1-1--o|
C#|---3-3-3-3-3-3-3---6-6-6-6-6-6-6-8-1-1-1-1-1-1-1---------------------|x2
      1 + 2 + 3 + 4 + 1 + 2 + 3 + 4 + 1 + 2 + 3 + 4 + 1 + 2 + 3 + 4 +

F#|------------------------------------------------------------------|
C#|------------------------------------------------------------------|
G#|-4-4-4-4-4-4-4-4-4-4-4-4-4-4-4-4----------------------------------|
C#|------------------------------------------------------------------|
    1 + 2 + 3 + 4 + 1 + 2 + 3 + 4 + 1 + 2 + 3 + 4 + 1 + 2 + 3 + 4 + 

2:36
F#|---------------------------------|
C#|-------------------------0-0-5-5-|
G#|---------------------2-2---------|
C#|-1-1-1-1-1-1-1-1-5-5-------------|
    1 + 2 + 3 + 4 + 1 + 2 + 3 + 4 +

2:40 Chorus
F#|-----------------------------------------------------------------|
C#|-----------------------------------------------------------------|
G#|-------------------------------------------------3-3-3-3-6-6-5---|
C#|-----6-6-6-6-6-6-1-1-1-1-1-1-1-1-5-5-5-5-5-5-5-5---------------8-|
    1 + 2 + 3 + 4 + 1 + 2 + 3 + 4 + 1 + 2 + 3 + 4 + 1 + 2 + 3 + 4 +

F#|-----------------------------------------------------------------|
C#|--------------------------------------------------------------5--|
G#|---------------------------------1-1-1-1-1-1-1-1---------------5-|
C#|-6-6-6-6-6-6-6-6-1-1-1-1-1-1-1-1-----------------55-55-55-55-----|
    1 + 2 + 3 + 4 + 1 + 2 + 3 + 4 + 1 + 2 + 3 + 4 + 1 + 2 + 3 + 4 +

F#|-----------------------------------------------------------------|
C#|-----------------------------------------------------------------|
G#|-------------------------------------------------3-3-3-3-6-6-5---|
C#|-6-6-6-6-6-6-6-6-1-1-1-1-1-1-1-1-5-5-5-5-5-5-5-5---------------8-|
    1 + 2 + 3 + 4 + 1 + 2 + 3 + 4 + 1 + 2 + 3 + 4 + 1 + 2 + 3 + 4 +

F#|-----------------------------------------------------------------|
C#|--------------------------------------------------------------5--|
G#|---------------------------------1-1-1-1-1-1-1-1---------------5-|
C#|-6-6-6-6-6-6-6-6-1-1-1-1-1-1-1-1-----------------55-55-55-55-----|
    1 + 2 + 3 + 4 + 1 + 2 + 3 + 4 + 1 + 2 + 3 + 4 + 1 + 2 + 3 + 4 +

3:09 Outro
F#|---------------------------------------------------------------------------------|
C#|--------------------------------------------------------------5---------------5--|
G#|---------------------------------1-1-1-1-1-1-1-1---------------5---------------5-|
C#|-6-6-6-6-6-6-6-6-1-1-1-1-1-1-1-1-----------------55-55-55-55-----55-55-55-55-----|
    1 + 2 + 3 + 4 + 1 + 2 + 3 + 4 + 1 + 2 + 3 + 4 + 1 + 2 + 3 + 4 + 1 + 2 + 3 + 4 +

Tabbed By Jack Mills
Suggest correction
Give kudos to tab author, rate the tab!
1 2 3 4 5
comments
print report bad tab
1 comment total.
0 reply
ashleigh.s.pool 10 wrote on December 5 2013, 12:32 pm, edited at 12:34 pm

I think in the verse it should be
|-----------------
|-----------------
|--6-8-10-6-1
|-----------------
Instead of
|-----------------
|-----------------
|--6-8-9-6-1--
|-----------------

guest
You may want to rate the tab now too:
select rating
Wanna post a correction for this tab? Suggest correction