Oops, an error
Loading. Please wait.

Canals Tab

version 1
version 1

Whole song

Interactive

3,437 views 3 this week
no commentswrite comment
1 2 3 4 5
accurate
x 3
add to favorites
launch autoscroll
font size
0
reset
how to read this tab
guitar tuner
Autoscroll
slow
fast
+/-
esc
set tempo
stop
Help us to improve Ultimate-Guitar.com Take our survey!
×
Author
Difficulty
novice
VERSE 1

normal:
Bm         Em
   I am a critic,
D           F#m               Bm
 of my own critical need to define myself
      Em                   D           F#m
With wine, and words, and lovers, and friends who don't understand

distorted:
|--x-----x---------------x----x------x----x---------------x------------x----|
|-(3)---(3)--------------x----x------x----x---------------x------------x----|
|--4-----4---------------9----9------7----7---------------x------------x----|
|--4-----4---------------9----9------7----7---------------4------------4----|
|--2-----2---------------7----7------5----5---------------4------------4----|
|--x-----x---------------x----x------x----x---------------2------------2----|
        So there,I just said it          you know that admitting the problem is the

---x----------x---------x-------x------x----x-----------x----------------x-|
--(3)--------(3)--------x-------x------x----x-----------x----------------x-|
---4----------4---------9-------9------7----7-----------x----------------x-|
---4----------4---------9-------9------7----7-----------4----------------4-|
---2----------2---------7-------7------5----5-----------4----------------4-|
---x----------x---------x-------x------x----x-----------2----------------2-|
  first step towards repair "We all recover," say the friends turned to wine-drunk

--x-----|
-(3)----|
--4-----|
--4-----|
--2-----|
--x-----|
 lovers


CHORUS:
|---------------------------------------------------------------------------|
|---------------------------------------------------------------------------|
|------------------7-7-7-7-7-7-7-7-------------------------4-4-4-4-4-4-4-4--|
|-5-5-5-5-5-5-5-5--7-7-7-7-7-7-7-7----4-4-4-4-4-4-4-4------4-4-4-4-4-4-4-4--|
|-5-5-5-5-5-5-5-5--5-5-5-5-5-5-5-5----4-4-4-4-4-4-4-4------2-2-2-2-2-2-2-2--|
|-3-3-3-3-3-3-3-3---------------------2-2-2-2-2-2-2-2-----------------------|
Smile, tell me I'm alright   with  a  goodbye      you are so misleading

---------------------------------------------------------------------------------------|
---------------------------------------------------------------------------------------|
-------------------7-7-7-7-7-7-7-7-----------------------------------------------------|
--5-5-5-5-5-5-5-5--7-7-7-7-7-7-7-7---------4-4-x-x-4-4-x-x-4-4-x----------4-4-4--------|
--5-5-5-5-5-5-5-5--5-5-5-5-5-5-5-5---------4-4-x-x-4-4-x-x-4-4-x----------2-2-2--------|
--3-3-3-3-3-3-3-3--------------------------2-2-x-x-2-2-x-x-2-2-x----------2-2-2--------|
      A kiss or a gun fight, high-noon or midnight            darling, I don't want to

-----------------------------------------------------------------------------|
-----------------------------------------------------------------------------|
---------------------7-7-7-7-7-7-7-7------------------------4-4-4-4-4-4-4-4--|
--5-5-5-5-5-5-5-5----7-7-7-7-7-7-7-7----4-4-4-4-4-4-4-4-----4-4-4-4-4-4-4-4--|
--5-5-5-5-5-5-5-5----5-5-5-5-5-5-5-5----4-4-4-4-4-4-4-4-----2-2-2-2-2-2-2-2--|
--3-3-3-3-3-3-3-3-----------------------2-2-2-2-2-2-2-2----------------------|
know if I'm just a short  sight on  a  cold night      the canals are freezing

------------------------------------------------------------------|
------------------------------------------------------------------|
-------------------7-7-7-7-7-7-7-7---------------------7-6--------|
--5-5-5-5-5-5-5-5--7-7-7-7-7-7-7-7---------44-44-44-44-7-6--------|
--5-5-5-5-5-5-5-5--5-5-5-5-5-5-5-5---------44-44-44-44-5-4--------|
--3-3-3-3-3-3-3-3--------------------------22-22-22-22------------|
       So tell me alright    with    a    goodbye


|----------------------------------------------|
|----------------------------------------------|
|----------------------------------------------|
|----------------2--2--5-2-0--0-2-4-0----------|
|------2--2-4-5-----------------------4--4-5\2-|
|-14\------------------------------------------|

VERSE 2

CHORUS


G                D          Em             F#m
 You've got the high ground, and I'm on my best defense
    G              D
But I dare you to come down
Em               F#m                   Cm
I'll give you an eye for an eye, if it makes things easy

Bm Em D F#m


CHORUS

|----------------------------------------------------------------------------------------|
|----------------------------------------------------------------------------------------|
|------------------7-7-7-7-7-7-7-7----------------------------------7-6-------------7-6--|
|-5-5-5-5-5-5-5-5--7-7-7-7-7-7-7-7----4-4-4-4-4-4-4-4---44-44-44-44-5-4-44-44-44-44-5-6--|
|-5-5-5-5-5-5-5-5--5-5-5-5-5-5-5-5----4-4-4-4-4-4-4-4---44-44-44-44-5-4-44-44-44-44-5-4--|
|-3-3-3-3-3-3-3-3---------------------2-2-2-2-2-2-2-2---22-22-22-22-----22-22-22-22------|
Smile, tell me I'm alright   with  a  goodbye
Suggest correction
Give kudos to tab author, rate the tab!
1 2 3 4 5
comments
print report bad tab
guest
You may want to rate the tab now too:
select rating
Wanna post a correction for this tab? Suggest correction