Oops, an error
Loading. Please wait.

Canals Tab

version 2
version 2

Whole song

Interactive

2,183 views 3 this week
no commentswrite comment
1 2 3 4 5
x 6
add to favorites
launch autoscroll
font size
0
reset
how to read this tab
guitar tuner
Autoscroll
slow
fast
+/-
esc
set tempo
stop
Help us to improve Ultimate-Guitar.com Take our survey!
×
Author
Difficulty
Tuning
novice
D A D G B E
Hi.

I wasn't able to figure out the solo because I couldn't hear what he was playing,
which sucks. But the rest of it sounds right to me! Have fun.

Tuning: Drop D (DADGBe)

Verse 1

e|------------|
B|------------|
G|----9--7----|
D|-9--9--7--7-| X2
A|-9--7--5--7-|
D|-9--------7-|


e|----------------------------------------------------|
B|----------------------------------------------------|
G|----------------------------------------------------|  X2
D|----------------------------------------------------|
A|---------------7--7-9-10-7--5--5-7-8-5--------------|
D|-9--9-11-12-9---------------------------7--7-9-10-7-|




Chorus 1

e|----------------------------------------|
B|----------------------------------------|
G|---------7------------------------------|
D|-5-------7(x8)---7-------9-------7------|
A|-5(x8)---5-------7(x8)---9(x4)---7(x4)--|
D|-5---------------7-------9-------7------|

e|------------------------|
B|------------------------|
G|---------7--------------|
D|-5-------7(x8)--7-------|
A|-5(x8)---5------7(x16)--|
D|-5--------------7-------|

e|----------------------------------------|
B|----------------------------------------|
G|---------7------------------------------|
D|-5-------7(x8)---7-------9-------7------|
A|-5(x8)---5-------7(x8)---9(x4)---7(x4)--|
D|-5---------------7-------9-------7------|

e|-----------------------------------|
B|-----------------------------------|
G|--------7--------------------------|
D|-5------7(x8)---7------------------|
A|-5(x8)--5-------7(x8)---------9----|
D|-5--------------7--------3(x8)---8-|

Listen to the song to find out how that last part is played.




Pre-verse

e|----------------------------------------------------|
B|----------------------------------------------------|
G|----------------------------------------------------|
D|----------------------------------------------------|
A|---------------7--7-9-10-7--5--5-7-8-5--------------|
D|-9--9-11-12-9---------------------------7--7-9-10-7-|




Verse 2

Muted
e|----------------------------------------------------|
B|----------------------------------------------------|
G|----------------------------------------------------|
D|----------------------------------------------------| X2
A|---------------7--7-9-10-7--5--5-7-8-5--------------|
D|-9--9-11-12-9---------------------------7--7-9-10-7-|


Regular
e|----------------------------------------------------|
B|----------------------------------------------------|
G|----------------------------------------------------|
D|----------------------------------------------------| X2
A|---------------7--7-9-10-7--5--5-7-8-5--------------|
D|-9--9-11-12-9---------------------------7--7-9-10-7-|




Chorus 2

Both guitars

e|----------------------------------------|
B|----------------------------------------|
G|---------7------------------------------|
D|-5-------7(x8)---7-------9-------7------|
A|-5(x8)---5-------7(x8)---9(x4)---7(x4)--|
D|-5---------------7-------9-------7------|

e|------------------------|
B|------------------------|
G|---------7--------------|
D|-5-------7(x8)--7-------|
A|-5(x8)---5------7(x16)--|
D|-5--------------7-------|


Guitar 1

e|----------------------------------------|
B|----------------------------------------|
G|---------7------------------------------|
D|-5-------7(x8)---7-------9-------7------|
A|-5(x8)---5-------7(x8)---9(x4)---7(x4)--|
D|-5---------------7-------9-------7------|

e|-----------------------------------|
B|-----------------------------------|
G|--------7--------------------------|
D|-5------7(x8)---7------------------|
A|-5(x8)--5-------7(x8)---------9----|
D|-5--------------7--------3(x8)---8-|


Guitar 2

e|------------------------------------------------------|
B|------------------------------------------------------|
G|-12-12-12-14-12--12-14-12-14-16-14--14-16-14-15-17-15-|
D|------------------------------------------------------|
A|------------------------------------------------------|
D|------------------------------------------------------|

e|---------------------|
B|---------------------|
G|---------------------|
D|-9-11-12-9----9-12---|
A|-----------12------9-|
D|---------------------|


e|------------------------------------------------------|
B|------------------------------------------------------|
G|-12-12-12-14-12--12-14-12-14-16-14--14-16-14-15-17-15-|
D|------------------------------------------------------|
A|------------------------------------------------------|
D|------------------------------------------------------|

e|------------|
B|------------|
G|------------|
D|------------|
A|--------9---|
D|--3(x8)---8-|

(I think that is what he plays but I can't really hear the last part so if you know what 
notes he plays please comment and tell me so that I can update the tab!)




Bridge

e|-----------------------------------------------------------------|
B|-----------------------------------------------------------------|
G|---------------7---------------------------7---------------------|
D|-9------5------7(x8)--7------9------5------7(x8)--7------10------|
A|-9(x8)--5(x8)--5------7(x8)--9(x8)--5(x8)--5------7(x8)--10(x16)-|
D|-9------5-------------7------9------5-------------7------10------|

There's a solo here but I can't hear what he's playing so unfortunately I can't tab it.




Pre-chorus

e|---------------------------------|
B|---------------------------------|
G|----------9---9---7--------------|
D|--9---9---9---9---7(x8)---9------|
A|--9---9--7---7----5-------9(x8)--|
D|-9---9--------------------7------|





Chorus 3


Both guitars

e|----------------------------------------|
B|----------------------------------------|
G|---------7------------------------------|
D|-5-------7(x8)---7-------9-------7------|
A|-5(x8)---5-------7(x8)---9(x4)---7(x4)--|
D|-5---------------7-------9-------7------|

e|------------------------|
B|------------------------|
G|---------7--------------|
D|-5-------7(x8)--7-------|
A|-5(x8)---5------7(x16)--|
D|-5--------------7-------|




Guitar 1

e|----------------------------------------|
B|----------------------------------------|
G|---------7------------------------------|
D|-5-------7(x8)---7-------9-------7------|
A|-5(x8)---5-------7(x8)---9(x4)---7(x4)--|
D|-5---------------7-------9-------7------|

e|-----------------------------------|
B|-----------------------------------|
G|--------7--------------------------|
D|-5------7(x8)---7------------------|
A|-5(x8)--5-------7(x8)---------9----|
D|-5--------------7--------3(x8)---8-|

e|-----------------------------------|
B|-----------------------------------|
G|--------7--------------------------|
D|-5------7(x8)---7------------------|
A|-5(x8)--5-------7(x8)---------9----|
D|-5--------------7--------3(x8)---8-|

e|------------|
B|------------|
G|------------|
D|------------|
A|--------9---|
D|--3(x8)---8-|



Guitar 2

e|------------------------------------------------------|
B|------------------------------------------------------|
G|-12-12-12-14-12--12-14-12-14-16-14--14-16-14-15-17-15-|
D|------------------------------------------------------|
A|------------------------------------------------------|
D|------------------------------------------------------|

e|---------------------|
B|---------------------|
G|---------------------|
D|-9-11-12-9----9-12---|
A|-----------12------9-|
D|---------------------|


e|------------------------------------------------------|
B|------------------------------------------------------|
G|-12-12-12-14-12--12-14-12-14-16-14--14-16-14-15-17-15-|
D|------------------------------------------------------|
A|------------------------------------------------------|
D|------------------------------------------------------|

e|------------|
B|------------|
G|------------|
D|------------|
A|--------9---|
D|--3(x8)---8-|


e|------------------------------------------------------|
B|------------------------------------------------------|
G|-12-12-12-14-12--12-14-12-14-16-14--14-16-14-15-17-15-|
D|------------------------------------------------------|
A|------------------------------------------------------|
D|------------------------------------------------------|

e|------------------------|
B|------------------------|
G|------------------------|
D|------------------------|
A|--------9-----------9---|
D|--3(x8)---8---3(x8)---8-|
Suggest correction
comments
print report bad tab
guest
You may want to rate the tab now too:
select rating
Wanna post a correction for this tab? Suggest correction