Oops, an error
Loading. Please wait.

Caroline tab

295 views 1 this week
no commentswrite comment
1 2 3 4 5
x 4
add to favorites
×
Save as Personal and add changes to this tab that will be seen only by you. Learn more ›
×
You can save this tab as Personal to edit and correct it or add notes. All changes will be seen only by you. Learn more »
launch autoscroll
font size
0
reset
how to read this tab
guitar tuner
edit
Autoscroll
slow
fast
+/-
esc
set tempo
stop
CAROLINE - All Time Low
Tuning: Drop D (DADGBe)
Guitar 1 - Alex Gaskarth
Guitar 2 - Jack Barakat
Link to my cover on YouTube!: https://www.youtube.com/watch?v=bDkg38K-XZ4

[Intro/Verse](guitar 2)
e|----------------------------------------------------------------------------|
B|o---------------------------------------------------------------------------|
G|----------------------------------------------------------------------------|
D|----15--15--15--15--15--15--15--15----6---6---8---8---8---8---8---8---8---8-|
A|o---------------------------------------------------------------------------|
D|--11--11--11--11--11--11--11--11---11---3---4---4---4---4---4---4---4---4---|

e|----------------------------------------------------------------------|
B|---------------------------------------------------------------------o|
G|----------------------------------------------------------------------|
D|---11---11---11---11--13--15--15--15---8---8---8---8---8---8---8---8--| 3x
A|---------------------------------------------------------------------o|
D|-8----8----8----8---10--10--11--11--11---4---4---4---4---4---4---4----|

e|-------------------------------------------------------------------|
B|-------------------------------------------------------------------|
G|--------------------------6-6-6-6----------------------------------|
D|--8-8-8-8-8-8-8-8-6-6-6-6---------4-4-4-4-4-4-4-4~\----------------|
A|-------------------------------------------------------------------|
D|-------------------------------------------------------------------|
    * * * * * * * * * * * * * * * * * *gradually lift palm mute

[Guitar 1](comes in at 00:24)
e|------------------------------------------------------------------------------------------------------|
B|------------------------------------------------------6-6-6-6-6-6-6-6---------9-9-9-9-----------------|
G|------------------------------11-11~\---------1111--------------------8-8-8-8---------6-6-6-6-6-6-6-6-|
D|-6-6------------3-3-----------------------------------------------------------------------------------|
A|-4-4------------1-1-----------9--9~\------9-9-9-9-----------------------------------------------------|
D|------------------------------------------------------------------------------------------------------|
                                                * *     * * * * * * * * * * * * * * * * * * * * * * * * 
[Chorus]
[Guitar 1]
e|-------------------------------------------------------------------|
B|-------------------------------------------------------------------|
G|-6------------------10~10--------11~11-----------------------------|
D|-6--x16-6------8~-----------6~-----------4-----4-3--1--6-6~--------|
A|-4------6--x16-8~---8~-8----6~---9~-9----4--x8---------------------|
D|--------6------8~-8-------8-6~-6-------6-4-----4-3--1--6-6~--------|
                    *       *    *       *
e|--------------------------------------------------------------------------|
B|--------------------------------------------------------------------------|
G|-6------------------10~10--------11~11------------------------------------|
D|-6--x16-6------8~-----------6~-----------4-----4-3--1--6-6~---8~---8--6~\-|
A|-4------6--x16-8~---8~-8----6~---9~-9----4--x8----------------8~---8--6~\-|
D|--------6------8~-----------6~-----------4-----4-3--1--6-6~---8~---8--6~\-|
                       
[Guitar 2]
e|-------------------------------------------------------------------|
B|-------------------------------------------------------------------|
G|-6------8-----------6~6--------6~6---------11-10--8--6-6~----------|
D|-6--x16----x16-8~---------6~---------4-----------------------------|
A|-4------6------8~-x-4~4-x-6~-x-4~4-x-4--x8-9--8---6--4-4~----------|
D|---------------8~-x-----x-6~-x-----x-4-----------------------------|
                                    
e|--------------------------------------------------------------------------------------------------------|
B|----14~-------------13--13---13-13--13-13--13-13~\-------------------------------------9-9~-11~-11--9~\-|
G|----------10--10-10~-----------------------------------6~6--------6~6---------11-10--8------------------|
D|--------------------------------------------------8~---------6~---------4--------------6-6~-8~--8---6~\-|
A|--------------------------------------------------8~-x-4~4-x-6~-x-4~4-x-4--x8-9--8---6------------------|
D|--------------------------------------------------8~-x-----x-6~-x-----x-4-------------------------------|
                                                                        
[Preverse]
e|-----------------------------------|
B|o----------------------------------|
G|-----------------------------------|
D|----15--15--15--15--15--15--15--15-|
A|o----------------------------------|
D|--11--11--11--11--11--11--11--11---|

[Verse 2]
[Guitar 2]
e|--------------------------------------------------------------------------|
B|--------------------------------------------------------------------------|
G|--------------------------------------------------------------------------|
D|---15--15--15--15--15--15--15--15---6---6---8---8---8---8---8---8---8---8-|
A|--------------------------------------------------------------------------|
D|-11--11--11--11--11--11--11--11---3---3---4---4---4---4---4---4---4---4---|

e|-----------------------------------------------------------------------------------|
B|-----------------------------------------------------------------------------------|
G|-----------------------------------------------------------------------------------|
D|-6-6----------------8---8---8---8---8---8---8---8---11---11---11--13--13--15--15---|
A|-4-4--------3-3-3------------------------------------------------------------------|
D|------------3-3-3-4---4---4---4---4---4---4---4---8----8----8---10--10--11--11--11-|
              * * *

e|---------------------------------------------------------------------------------------|
B|---------------------------------------------------------------------------------------|
G|---------------------------------------------------------6-6-6-6-----------------------|
D|---8---8---8---8---8---8---8---8-8-8-8-8-8-8-8-8-6-6-6-6---------4-4-4-4-4-4-4-4~\-----|
A|---------------------------------------------------------------------------------------|
D|-4---4---4---4---4---4---4---4---------------------------------------------------------|
                                   * * * * * * * * * * * * * * * * *gradually lift palm mute

[Guitar 1](comes in at 1:21)
e|---------------------------------------------------------------------------------|
B|---------------------------------6-6-6-6-6-6-6-6---------9-9-9-9-----------------|
G|-------------------------------------------------8-8-8-8---------6-6-6-6-6-6-6-6-|
D|---------------------------------------------------------------------------------|
A|---------------------------------------------------------------------------------|
D|---------------------------------------------------------------------------------|
                                   * * * * * * * * * * * * * * * * * * * * * * * * 
[Chorus]
[Guitar 1]
e|-------------------------------------------------------------------|
B|-------------------------------------------------------------------|
G|-6------------------10~10--------11~11-----------------------------|
D|-6--x16-6------8~-----------6~-----------4-----4-3--1--6-6~--------|
A|-4------6--x16-8~---8~-8----6~---9~-9----4--x8---------------------|
D|--------6------8~-8-------8-6~-6-------6-4-----4-3--1--6-6~--------|
                    *       *    *       *

e|--------------------------------------------------------------------------|
B|--------------------------------------------------------------------------|
G|-6------------------10~10--------11~11------------------------------------|
D|-6--x16-6------8~-----------6~-----------4-----4-3--1--6-6~---8~---8--6~\-|
A|-4------6--x16-8~---8~-8----6~---9~-9----4--x8----------------8~---8--6~\-|
D|--------6------8~-----------6~-----------4-----4-3--1--6-6~---8~---8--6~\-|
                       
[Guitar 2]
e|-------------------------------------------------------------------|
B|-------------------------------------------------------------------|
G|-6------8-----------6~6--------6~6---------11-10--8--6-6~----------|
D|-6--x16----x16-8~---------6~---------4-----------------------------|
A|-4------6------8~-x-4~4-x-6~-x-4~4-x-4--x8-9--8---6--4-4~----------|
D|---------------8~-x-----x-6~-x-----x-4-----------------------------|
                                    
e|--------------------------------------------------------------------------------------------------------|
B|----14~-------------13--13---13-13--13-13--13-13~\-------------------------------------9-9~-11~-11--9~\-|
G|----------10--10-10~-----------------------------------6~6--------6~6---------11-10--8------------------|
D|--------------------------------------------------8~---------6~---------4--------------6-6~-8~--8---6~\-|
A|--------------------------------------------------8~-x-4~4-x-6~-x-4~4-x-4--x8-9--8---6------------------|
D|--------------------------------------------------8~-x-----x-6~-x-----x-4-------------------------------|

[Bridge/Guitar Solo]
[Guitar 1]
e|-------------------------------------------------------------------------------------------------------|
B|-------------------------------------------------------------------------------------------------------|
G|-------------------------------------------------------------------------------------------------------|
D|-1-------4-----8-------6-----1-----4-----8-----6---------------------------------------6-6-6-6-6-6-6-6-|
A|-1--x7-x-4--x8-8--x7-x-6--x8-1--x8-4--x8-8--x8-6--x8-66---666------------------6-6-6-6-6-6-6-6-6-6-6-6-|
D|-1-----x-4-----8-----x-6-----1-----4-----8-----6-----66---666---6-13~\-6-6-6-6-6-6-6-6-6-6-6-6-6-6-6-6-|
                                                       *     **   *      * * * * * * * * * * * *

[Guitar 2](SOLO)
e|------------------------------------------------------------------------|
B|-9/11-11-11-11-9---11~-11-11-11-11/14-14-14-14-9/11-11-11-11-11-9-------|
G|-----------------10-----------------------------------------------10-8~-|
D|------------------------------------------------------------------------|
A|------------------------------------------------------------------------|
D|------------------------------------------------------------------------|

e|----------------------14----14--------14----14----16-16-14-14-13-13-11-|
B|--------------------14----14----14--14----14----14---------------------|
G|-8-8-8-8-10-11-13/15----15----15--15----15----15-----------------------|
D|-----------------------------------------------------------------------|
A|-----------------------------------------------------------------------|
D|-----------------------------------------------------------------------|

e|-14-14-14-13-13-11-11------16-16-14-14-13-11--14-14-14-13-13-11-11-9-9-|
B|---------------------14-14------------------14-------------------------|
G|---------------------------***-----------------------------------------|
D|-----------------------------------------------------------------------|
A|-----------------------------------------------------------------------|
D|-----------------------------------------------------------------------|

e|---------------------------------------14-14-14-14-|
B|-11/13-13-13-13-14-14-14-14-16-16-16-16------------|
G|---------------------------------------------------|
D|---------------------------------------------------|
A|---------------------------------------------------|
D|---------------------------------------------------|

Harmony Guitar (starts at the ***)
e|------------------------------------------------------------------------------------------------|
B|-18-18-16-16-14-13--16-16-16-14-14-13-13-11-11--------------------------13-13-13-13-16-16-16-16-|
G|------------------15--------------------------11/13-13-13-13-15-15-15-15------------------------|
D|------------------------------------------------------------------------------------------------|
A|------------------------------------------------------------------------------------------------|
D|------------------------------------------------------------------------------------------------|

[Final Chorus]

[Guitar 1]
e|-------------------------------------------------------------------|
B|-------------------------------------------------------------------|
G|-6------------------10~10--------11~11-----------------------------|
D|-6--x16-6------8~-----------6~-----------4-----4-3--1--6-6~--------|
A|-4------6--x16-8~---8~-8----6~---9~-9----4--x8---------------------|
D|--------6------8~-8-------8-6~-6-------6-4-----4-3--1--6-6~--------|
                    *       *    *       *

e|---------------------------------------------------------------------------------------------|
B|---------------------------------------------------------------------------------------------|
G|-6-------------10-10-10------10~10--------11~11-------------------------------6~-------------|
D|-6--x16-6---------------8~-----------6~-----------4-------------8~---8--6~--x-6~--4-------6~-|
A|-4------6--x12-8--8--8--8~---8~-8----6~---9~-9----4--x8-(pause)-8~---8--6~--x-4~--4--x12--6~-|
D|--------6---------------8~-----------6~-----------4-------------8~---8--6~--x-----4-------6~-|

[Guitar 2]
e|------------------------------------------------------------|
B|------------------------------------------------------------|
G|-6------8-------------6~6--------6~6---------11-10--8--6-6~-|
D|-6--x16----x12---8~---------6~---------4--------------------|
A|-4------6------x-8~-x-4~4-x-6~-x-4~4-x-4--x8-9--8---6--4-4~-|
D|---------------x-8~-x-----x-6~-x-----x-4--------------------|
                                         
e|-----------------------------------------------------------------------------------------------14-16~-|
B|--------------------------------------------------------14-14-14-14-----18-18-14-14-16-16-18-18-------|
G|-6------8------x-6-6-6------6~6--------6~6-------------------------13-13-----------------------11-13~-|
D|-6--x14----x12-x-------8~-x-------6~---------4----------11-11-11-11-----15-15-11-11-13-13-15-15-------|
A|-4------6------x-4-4-4-8~-x-4~4---6~-x-4~4-x-4--x8-----------------11-11------------------------------|
D|-----------------------8~-x-----x-6~-x-----x-4--------------------------------------------------------|

************************************

| ~  Vibrato
| x  Dead note
| /  Slide up

************************************

            
            
Suggest correction
Creating personal tab
Creating personal tab
You can edit any tab online and save it as your Personal.

You can edit, replace or remove any tab part or add personal notes – all changes will be seen only by you.

Personal tabs can be accessed anytime from any device, even offline.
Learn more »
comments
print report bad tab
guest
You may want to rate the tab now too:
select rating
Wanna post a correction for this tab? Suggest correction