Oops, an error
Loading. Please wait.

Circles Bass Tab

version 1
version 1

Whole song

Interactive

6,942 views 1 this week
2 commentsread comments
1 2 3 4 5
please rate
add to favorites
launch autoscroll
font size
0
reset
guitar tuner
Autoscroll
slow
fast
+/-
esc
set tempo
stop
Help us to improve Ultimate-Guitar.com Take our survey!
×
Author
Difficulty
Tuning
intermediate
D A D G B E
Circles
All Time Low
Bassist: Zach Merrick
Tuning: Drop D
*LISTEN FOR TIMING ON PARTS*


Bass enters at (0:05)
Intro
G|------------------------------------------------------------------------------------------|
D|-------------------------------------------------------------------------9-7-5------------|
A|-------------------------------------------------------------------------------9-7p5-4h5--|
D|-9999-9999-5555-5555-99-9\--5555-5555-9999-9999-5555-5555-0~~~----------------------------|

Verse 1 (0:26)
G|---------------------------------------------------------|
D|---------------------------------------------------------|
A|---------------------------------------55555555----------|
D|-9999-5555-0000-7777-99999999-55555555----------77777777-|

G|-----------------------------------------------|
D|-----------------------------------------------|
A|-----------------------------------------------|
D|-99999999-55555555-00000000-777777--5/12\5-----|

Pre-Chorus (0:58)
G|-------------------------------------|
D|-------------------------------------|
A|-------------------------------------|
D|-99999999-00000000-77777777-55555555-|

G|----------------------------------------------|
D|----------------------------------------------|
A|---------------77554455-----------------------|
D|-99999999-0000----------77777777-55555555-5~~-|

Chorus (1:24)
G|--------------------------------------------------------------------|  |--|
D|--------------------------------------------------------------------|  |--|
A|--------------------------------------------------------------------|  |--|
D|-0000000000000000-5555555555555555-9999999999999999-5555555555555555|x2|-0|


Verse 2 (1:47)
G|-------------------------------------------------|
D|-------------------------------------------------|
A|---------------------5555-5555-----------4h5-5p0-|
D|-9999-9999-5555-5555-----------7777-7777---------|

G|-----------------------------------------|
D|-----------------------------------------|
A|---------------------5555-5555-----------|
D|-9999-9999-5555-5555-----------7777-7777-|

Pre-Chorus (2:08)

Chorus (2:35)

Ending (2:55)
G|----------------------------|
D|----------------------------|
A|--------------------7~~~----|
D|-0~~~-0~~~-0~~~-0~~~---0~~~-|
Suggest correction
What's this?
You can suggest a correction to this tab. Community and Mods will review your correction and vote to approve or reject it.
comments
We did not receive enough feedback on this tab! Please rate:
print report bad tab
1 2 3 4 5
2 comments total.
0 reply
mwebassmaster09 98 wrote on October 9 2007, 04:50 pm

On the outro the 7 is supposed to be played on the high D string...my bad

0 reply
EMOBassist808 84 wrote on June 9 2009, 11:14 pm

good tab cnt believe no1 rated it fr so long

guest
You may want to rate the tab now too:
select rating
Please do not post tabs as comments. Select "correction" instead!