Oops, an error
Loading. Please wait.

Circles Tab

version 1
version 1

Whole song

Interactive

30,881 views 18 this week
7 commentsread comments
1 2 3 4 5
excellent!
x 12
add to favorites
launch autoscroll
font size
0
reset
how to read this tab
guitar tuner
Autoscroll
slow
fast
+/-
esc
set tempo
stop
Help us to improve Ultimate-Guitar.com Take our survey!
×
Author
Difficulty
Tuning
novice
D A D G B E
Hey! This is the song Circles off their old cd.  Yes, there was one before Put Up or 
Up.  It is called The Party Scene.

Intro g1
E|--------------|------|
B|--------------|------|
G|-111111--677--|-7~~~-|
D|--x-x-x--xxx--|-7~~~-|
A|--9-9-9--455--|-5~~~-|
D|--------------|------|

Intro g2
E|-------------------------------------------------------------------|
B|-------------------------------------------------------------------|
G|-------------------------------------------------------------------|
D|----9999-9999-5555-5555-9999---5555-5555-999999999-5555555555-0~~~-|
A|----9999-9999-5555-5555-9999---5555-5555-999999999-5555555555-0~~~-|
D|----9999-9999-5555-5555-9999---5555-5555-999999999-5555555555-0~~~-|

Verse g1
E|--------------------------------------------------------------------|
B|--------------------------------------------------------------------|
G|------------7777------------------------------7777-7777-------------|
D|-9999--5555-7777--7777--9999-9999--5555-5555--7777-7777--7777-7777--|
A|-9999--5555-5555--7777--9999-9999--5555-5555--5555-5555--7777-7777--|
D|-9999--5555-------7777--9999-9999--5555-5555-------------7777-7777--|
Pm ****  **** ****  ****  **** ****  **** ****  **** ****  **** ****

E|-------------------------------------------------|
B|-------------------------------------------------|
G|-----------------------7777-7777-----------------|
D|-9999-9999--5555-5555--7777-7777--7777-77--------|
A|-9999-9999—-5555-5555--5555-5555--7777-77--------|
D|-9999-9999--5555-5555-------------7777-77--------|

Verse g2 (repeat several times)
E|--------------------------|
B|-3p0-2p0-3p0-2p0----------|
G|--------------------------|
D|--------------------------|
A|--------------------------|
D|--------------------------|

E|---------------------------------------------------|
B|---------------------------------------------------|
G|-7777-9977--7777-7777--7777-9977--7777-7777--------|
D|-xxxx-xxxx--xxxx-xxxx--xxxx-xxxx--xxxx-xxxx--------|
A|-5555-7755--5555-5555--5555-7755--5555-5555--------|
D|---------------------------------------------------|

Pre-Chorus g1
    X2  (let last note ring on 2nd time)
E|-------------------------------------|------------------------------|
B|-------------------------------------|------------------------------|
G|----------77777777-------------------|-------------1111111111111111-|
D|-99999999-77777777-77777777-55555555-|------------—-x-x-x-x-x-x-x-x-|
A|-99999999-55555555-77777777-55555555-|------------—-9-9-9-9-9-9-9-9-|
D|-99999999----------77777777-55555555-|------------------------------|

Pre-Chorus g2
    X2
E|-------------------------------------------|------------------------|
B|-------------------------------------------|------------------------|
G|77777777-1111111111111111-99999999-77777777|7777777-1111111111111111|
D|xxxxxxxx—-x-x-x-x-x-x-x-x-xxxxxxxx-xxxxxxxx|xxxxxxx--x-x-x-x-x-x-x-x|
A|55555555—-9-9-9-9-9-9-9-9-77777777-55555555|5555555--9-9-9-9-9-9-9-9|
D|-------------------------------------------|------------------------|

Chorus g1
                        X2
E|--------------------------------------------------------------------|
B|--------------------------------------------------------------------|
G|--------------------------------------------------------------------|
D|-0000000000000000-5555555555555555-999999999999999-5555555555555555-|
A|-0000000000000000-5555555555555555-999999999999999-5555555555555555-|
D|-0000000000000000-5555555555555555-999999999999999-5555555555555555-|

Chorus g2
                      X2
E|----------------------------------------------------------------(10)|
B|--------------------------------------------------------------------|
G|--------------------------------------------------------------------|
D|0000000000000000-5555555555555555-999999999999999-5555555555555555--|
A|0000000000000000-5555555555555555-999999999999999-5555555555555555--|
D|0000000000000000-5555555555555555-999999999999999-5555555555555555--|
Pm                                                                **

Pre-verse g1
E|-------------------|
B|-------------------|
G|-------------------|
D|-0-7-9-11----------|
A|-0-----------------|
D|-0-----------------|

Pre-verse g2
E|-------------------|
B|-------------------|
G|-7-7-9-11----------|
D|-7-x-x—-x----------|
A|-5-5-7--9----------|
D|-------------------|

Verse 2 g1
             X2
E|---------------------------------------------|
B|---------------------------------------------|
G|-----------------------7777-7777-------------|
D|-9999-9999--5555-5555--7777-7777--7777-7777--|
A|-9999-9999--5555-5555--5555-5555--7777-7777--|
D|-9999-9999--5555-5555-------------7777-7777--|

Verse2 g2
E|---------------------------------------------------|
B|---------------------------------------------------|
G|-7777-7777--7777-7777--7777-7777--7777-7777--------|
D|-xxxx-xxxx--xxxx-xxxx--xxxx-xxxx--xxxx-xxxx--------|
A|-5555-5555--5555-5555--5555-5555--5555-5555--------|
D|---------------------------------------------------|

E|---------------------------------------------|
B|---------------------------------------------|
G|-----------------------7777-7777-------------|
D|-9999-9999--5555-5555--7777-7777--7777-7777--|
A|-9999-9999--5555-5555--5555-5555--7777-7777--|
D|-9999-9999--5555-5555-------------7777-7777--|

Pre-Chorus 2 g1
    X2  (let last note ring on 2nd time)
E|-------------------------------------|
B|-------------------------------------|
G|----------77777777-------------------|
D|-99999999-77777777-77777777-55555555-|
A|-99999999-55555555-77777777-55555555-|
D|-99999999----------77777777-55555555-|

Pre-Chorus 2 g2
    X2
E|-------------------------------------------|-----------|
B|-------------------------------------------|-----------|
G|77777777-1111111111111111-99999999-77777777|7-9-11-14--|
D|xxxxxxxx—-x-x-x-x-x-x-x-x-xxxxxxxx-xxxxxxxx|x-x—-------|
A|55555555—-9-9-9-9-9-9-9-9-77777777-55555555|5-7--------|
D|-------------------------------------------|-----------|

Both guitars play chorus

Outro g1
E|---------------------------------------|
B|---------------------------------------|
G|-7-6-9-7--7-6-9-7--7-6-9-7--7-6-9~~~---|
D|---------------------------------------|
A|---------------------------------------|
D|---------------------------------------|

Outro g2
E|---------------------------------------|
B|---------------------------------------|
G|---6-9-12----6-9-12----6-9-12----------|
D|-0~~~------0~~~-------0~~~-----0~~~----|
A|-0~~~------0~~~-------0~~~-----0~~~----|
D|-0~~~------0~~~-------0~~~-----0~~~----|
Suggest correction
What's this?
You can suggest a correction to this tab. Community and Mods will review your correction and vote to approve or reject it.
comments
print report bad tab
7 comments total. Showing first comments.
0 reply
krmrockstar1110 62 wrote on June 18 2007, 10:35 pm

WOW.
i wondered why no one tabbed the old stuff.
but this....is DEAD ON.
nice job.
it was deffinately worth the wait.
five stars.

+1 reply
LisTenToThriCe 66 wrote on July 27 2007, 07:09 pm

Shit, good job.

The Party Scene, even the old versions of the songs, was so much more fun.

+1 reply
ejscan1 50 wrote on October 30 2007, 08:30 pm

this is a great tab for one of the best atl songs

guest
You may want to rate the tab now too:
select rating
Please do not post tabs as comments. Select "correction" instead!