Oops, an error
Loading. Please wait.

Circles Tab

version 2
version 2

Whole song

Interactive

4,460 views 1 this week
no commentswrite comment
1 2 3 4 5
accurate
x 3
add to favorites
launch autoscroll
font size
0
reset
how to read this tab
guitar tuner
Tab Pro tools
  • play this tab
  • loop segment
  • change instrument
  • show fretboard
  • metronome
×
Best way to learn
"Circles"
Autoscroll
slow
fast
+/-
esc
set tempo
stop
Contributor
Difficulty
Tuning
novice
D A D G B E
-------------------------------------------------------------------------------
                             Circles - All Time Low
-------------------------------------------------------------------------------
Tabbed by:Clash Calamity
Email:kunaixtoshio91@hotmail.com

Lead/Guitar 1-Jack Barakat
Rhythm/Guitar 2-Alex Gaskarth

Tuning:DADGBE

Intro
Guitar 1
e|----------------------|----------------------|
B|----------------------|----------------------|
G|-xx-1111-11-xxx-6/7-7-|-xx-1111-11-xxx-6/7-7-|
D|-xx--x-x--x-xxx-x/x-x-|-xx--x-x--x-xxx-x/x-x-|
A|-xx--9-9--9-xxx-4/5-5-|-xx--9-9--9-xxx-4/5-5-|
D|----------------------|----------------------|

Guitar 1
e|----------------------|x6|---------|
B|----------------------|  |---------|
G|-xx-1111-11-xxx-6/7-7-|  |-7777-7~-|
D|-xx--x-x--x-xxx-x/x-x-|  |-xxxx-x~-|
A|-xx--9-9--9-xxx-4/5-5-|  |-5555-5~-|
D|----------------------|  |---------|

Guitar 2
e|--------------|--------------|-----------|--------------|--------------|-------------|----|
B|--------------|--------------|-----------|--------------|--------------|-------------|----|
G|--------------|--------------|-----------|--------------|--------------|-------------|----|
D|-99-99--99-99-|-55-55--55-55-|-99-99-----|-55-55--55-55-|-99-99--99-99-|-55-55--55-55|-0~-|
A|-99-99--99-99-|-55-55--55-55-|-99-99-----|-55-55--55-55-|-99-99--99-99-|-55-55--55-55|-0~-|
D|-99-99--99-99-|-55-55--55-55-|-99-99-----|-55-55--55-55-|-99-99--99-99-|-55-55--55-55|-0~-|

Verse 1
Guitar 1
E|--------------------------------------------------------------------|
B|--------------------------------------------------------------------|
G|--------------------------------------------------------------------|
D|------------7777------------------------------7777-7777-------------|
A|-9999--5555-5555--7777--9999-9999--5555-5555--5555-5555--7777-7777--|
D|-9999--5555-------7777--9999-9999--5555-5555-------------7777-7777--|
   ****  **** ****  ****  **** ****  **** ****  **** ****  **** ****
Guitar 2
e|------------------------------------------------|x8
B|------------------------------------------------|
G|------------------------------------------------|
D|-t12p9-t11p9-t12p9-t11p9t-12p9-t11p9-t9p7-t11p9-|
A|------------------------------------------------|
D|------------------------------------------------|

Verse 1 Pt.2
Guitar 1
E|----------------------------------------------------------------|
B|----------------------------------------------------------------|
G|-77-77-99-77-xx-77-77-1111-77-xx-77-77-99-77-xx-77-77-77--------|
D|-xx-xx-xx-xx-xx-xx-xx--x-x-xx-xx-xx-xx-xx-xx-xx-xx-xx-xx--------|
A|-55-55-77-55-xx-55-55--9-9-55-xx-55-55-77-55-xx-55-55-55--------|
D|----------------------------------------------------------------|
Guitar 2
E|--------------------------------------------------------------|
B|--------------------------------------------------------------|
G|----------------------------xx-77-77-77-77--------------------|
D|-99-99-99-99-xx-55-55-55-55-xx-77-77-77-77-xx-77-77-77--------|
A|-99-99-99-99—xx-55-55-55-55-xx-55-55-55-55-xx-77-77-77--------|
D|-99-99-99-99-xx-55-55-55-55----------------xx-77-77-77--------|

Pre-Chorus 1 Pt. 1
Guitar 1 (Play whole thing twice)
e|------------------------|x2|-----------------------------------------|
B|------------------------|  |-----------------------------------------|
G|-77777777-9999-11111111-|  |-99999999-11111111-9999-7777x-x7777x-x77-|
D|-xxxxxxxx-xxxx--x-x-x-x-|  |-xxxxxxxx--x-x-x-x-xxxx-xxxxx-xxxxxx-xxx-|
A|-55555555-7777--9-9-9-9-|  |-77777777--9-9-9-9-7777-5555x-x5555x-x55-|
D|------------------------|  |-----------------------------------------|

Guitar 2
e|-------------------------------------|x2
B|-------------------------------------|
G|----------77777777-------------------|
D|-99999999-77777777-77777777-55555555-|
A|-99999999-55555555-77777777-55555555-|
D|-99999999----------77777777-55555555-|

Pre-Chorus 1 Pt. 2
Guitar 1
e|-----------------|---------------------------|
B|-----------------|---------------------------|
G|-x7777-x7777-x77-|-x11111111-x11111111-x1414-|
D|-xxxxx-xxxxx-xxx-|-x-x-x-x-x-x-x-x-x-x-x-x-x-|
A|-x5555-x5555-x55-|-x-9-9-9-9-x-9-9-9-9-x1212-|
D|-----------------|---------------------------|

Guitar 2
e|-----------------|----------------------------|
B|-----------------|----------------------------|
G|-----------------|-x11111111-x11111111-x1414--|
D|-----------------|-x-x-x-x-x-x-x-x-x-x-x-x-x--|
A|-----------------|-x-9-9-9-9-x-9-9-9-9-x1212--|
D|-----------------|----------------------------|

Chorus 1
Guitar 1                        
E|--------------------------------------------------------------------|x2
B|--------------------------------------------------------------------|
G|--------------------------------------------------------------------|
D|-0000000000000000-5555555555555555-999999999999999-5555555555555555-|
A|-0000000000000000-5555555555555555-999999999999999-5555555555555555-|
D|-0000000000000000-5555555555555555-999999999999999-5555555555555555-|

Guitar 2                         X2
E|----------------------------------------------------------------5~--|x2
B|-----------------------------------------------------------------3~-|
G|--------------------------------------------------------------------|
D|0000000000000000-5555555555555555-999999999999999-55555555555555----|
A|0000000000000000-5555555555555555-999999999999999-55555555555555----|
D|0000000000000000-5555555555555555-999999999999999-55555555555555----|

Pre-Verse
Guitar 1
e|----------|
B|----------|
G|-7~-7-6-9~|
D|-7~-x-x-x-|
A|-5~-5-4-7~|
D|----------|

Guitar 2
e|----------|
B|----------|
G|----------|
D|-0~-------|
A|-0~-------|
D|-0~-------|

Verse 2
Guitar 1

e|----------------------------------------------------|x2
B|----------------------------------------------------|
G|---------------------------77-77-77-77--------------|
D|-99-99-99-99--55-55-55-55--77-77-77-77--77-77-77-77-|
A|-99-99-99-99--55-55-55-55--55-55-55-55--77-77-77-77-|
D|-99-99-99-99--55-55-55-55---------------77-77-77-77-|

Pre-Chorus 2. Pt. 1
Guitar 1 (Play whole thing twice)
e|------------------------|x2|-----------------------------------------|
B|------------------------|  |-----------------------------------------|
G|-77777777-9999-11111111-|  |-99999999-11111111-9999-7777x-x7777x-x77-|
D|-xxxxxxxx-xxxx--x-x-x-x-|  |-xxxxxxxx--x-x-x-x-xxxx-xxxxx-xxxxxx-xxx-|
A|-55555555-7777--9-9-9-9-|  |-77777777--9-9-9-9-7777-5555x-x5555x-x55-|
D|------------------------|  |-----------------------------------------|

Guitar 2
e|-------------------------------------|x2
B|-------------------------------------|
G|----------77777777-------------------|
D|-99999999-77777777-77777777-55555555-|
A|-99999999-55555555-77777777-55555555-|
D|-99999999----------77777777-55555555-|

Pre-chorus 2. Pt. 2
Guitar 1
e|---------------|
B|---------------|
G|-7~-9~-11~-14~-|
D|-x--x---x---x--|
A|-5~-7~--9~-12~-|
D|---------------|

Chorus 2
Guitar 1                        
E|--------------------------------------------------------------------|x2
B|--------------------------------------------------------------------|
G|--------------------------------------------------------------------|
D|-0000000000000000-5555555555555555-999999999999999-5555555555555555-|
A|-0000000000000000-5555555555555555-999999999999999-5555555555555555-|
D|-0000000000000000-5555555555555555-999999999999999-5555555555555555-|

Guitar 2                         X2
E|----------------------------------------------------------------5~--|x2
B|-----------------------------------------------------------------3~-|
G|--------------------------------------------------------------------|
D|0000000000000000-5555555555555555-999999999999999-55555555555555----|
A|0000000000000000-5555555555555555-999999999999999-55555555555555----|
D|0000000000000000-5555555555555555-999999999999999-55555555555555----|

Outro
Guitar 1
e|--------------|-------------|-------------|-------------|
B|--------------|-------------|-------------|-------------|
G|--7~-6~-4~-2~-|-7~-6~-4~-2~-|-7~-6~-4~-2~-|-7~-6~-4~-2~-|
D|--------------|-------------|-------------|-------------|
A|--------------|-------------|-------------|-------------|
D|--------------|-------------|-------------|-------------|

Guitar 2
e|--------------|-------------|-------------|-------------|
B|--------------|-------------|-------------|-------------|
G|--------------|-------------|-7~-9~11~14~-|-7~-9~11~14~-|
D|--------------|-------------|-------------|-------------|
A|--------------|-------------|-------------|-------------|
D|--------------|-------------|-------------|-------------|


| /  slide up
| \  slide down
| h  hammer-on
| p  pull-off
| ~  vibrato
| +  harmonic
| x  Mute note
===============================================================================
comments
We did not receive enough feedback on this tab! Please rate:
print report bad tab
1 2 3 4 5
I want to post or [tab]
guest
You may want to rate the tab now too:
select rating
Please do not post tabs as comments. Select "correction" instead!