Oops, an error
Loading. Please wait.

Circles Tab

version 3
version 3

Whole song

Interactive

8,456 views 1 this week
no commentswrite comment
1 2 3 4 5
please rate
add to favorites
launch autoscroll
font size
0
reset
how to read this tab
guitar tuner
Autoscroll
slow
fast
+/-
esc
set tempo
stop
Help us to improve Ultimate-Guitar.com Take our survey!
×
Author
Hey, this the first tab i've posted! (:
Couldn't find a good tab so i tabbed it myself, this is a real underrated song!

Uhh, the band play it in drop d, but i changed the notes around to make it
playable in standard tuning

Questions? Comments? Requests? Hit my page up or send me an email, matthewclark@windowslive.com

Comment and Rate :D
Thanks!

Song: Circles
Band: All Time Low
Album: The Party Scene

Guitar 1: Alex
Guitar 2: Jack

Intro! 0:00-0:04
Guitar 1:
e|----------------|
B|--777-----------|
G|--xxx--6-777----|
D|--444--x-xxx----|  x2
A|-------4-555----|
E|----------------|

Band Kicks In: 0:05-0:20
Guitar 1:
e|----------------|
B|--777-----------|
G|--xxx--6-777----|
D|--444--x-xxx----|  x6
A|-------4-555----|
E|----------------|

Guitar 2:
e|------------------------------|
B|------------------------------|
G|------------------------------|
D|--99-99-99-99--55-55-55-55----|  x3
A|--99-99-99-99--55-55-55-55----|
E|--77-77-77-77--33-33-33-33----|

Pre Verse: 0:21-0:25
Both Guitars!
e|-------|
B|-------|
G|--7----|
D|--7----| Let Ring Until Verse
A|--5----|
E|-------|

Verse 1: 0:26-0:46
Guitar 1:
e|----------------------------|
B|--t6-2-t6-2-t6-2-t7-2-t6-2--|
G|----------------------------|
D|----------------------------|  t = tap this note.  x16
A|----------------------------|
E|----------------------------|

Guitar 2:
e|-------------------------------------------------|
B|-------------------------------------------------|
G|-------------------------------------------------|
D|----------------77-77-------  P.M - Palm mute----|  x2
A|--99-99--55-55--55-55--77-77---------------------|
E|--77-77--33-33---------55-55---------------------|
P.M ** **  ** **  ** **  ** **

"They Stop.. They Go" 0:46-0:57
Guitar 1:
e|----------------------xx------------------------------------------|
B|----------------------xx------------------------------------------|
G|--77-77--99-99--77-77-xx--77-77--11-11--77-77---------------------|
D|--xx-xx--xx-xx--xx-xx-xx--xx-xx--xx-xx--xx-xx  (Those "1"s are 11-|s)
A|--55-55--77-77--55-55-xx--55-55--99-99--55-55---------------------|  x2
E|----------------------xx------------------------------------------|

Guitar 2:
e|--------------xx-------------xx-------------xx--------------|
B|--------------xx-------------xx-------------xx--------------|
G|--------------xx-------------xx-77-77-77-77-xx--------------|
D|--99-99-99-99-xx-55-55-55-55-xx-77-77-77-77-xx-77-77-77-77--|
A|--99-99-99-99-xx-55-55-55-55-xx-55-55-55-55-xx-77-77-77-77--|
E|--77-77-77-77-xx-33-33-33-33-xx-------------xx-55-55-55-55--|

"Go Back to The Place We Knew.." 0:57-1:18
Both Guitars:
e|---------------------------------------|
B|---------------------------------------|
G|-----------77777777--------------------|
D|--99999999-77777777-77777777-55555555--|
A|--99999999-55555555-77777777-55555555--|
E|--77777777----------55555555-33333333--|

Pre-Chorus: 1:19-1:24
Both Guitars:
e|----------------------------|
B|----------------------------|
G|--777-777-11-777-777--1414--|
D|--xxx-xxx-xx-xxx-xxx--xxxx--|
A|--555-555-99-555-555--1212--|
E|----------------------------|

Chorus: 1:25-1:44
Both Guitars:
e|-------------------------------------|
B|-------------------------------------|
G|--77777777---------------------------|
D|--77777777555555559999999955555555---|  x2
A|--55555555555555559999999955555555---|
E|----------333333337777777733333333---|

Post Chorus Break: 1:45-1:47
Guitar 1:
e|-------------|
B|-------------|
G|--7-7-9-11---|
D|--7----------|
A|--5----------|
E|-------------|

Guitar 2:
e|-------|
B|-------|
G|--7----|
D|--7----|
A|--5----|
E|-------|

Verse 2: 1:45-1:57
Guitar 2 Only:
e|-------------------------------------------------|
B|-------------------------------------------------|
G|-------------------------------------------------|
D|----------------77-77----------------------------|
A|--99-99--55-55--55-55--77-77---------------------|
E|--77-77--33-33---------55-55---------------------|

"He Was The Poet.." 1:57-2:07
Guitar 2 Only:
e|--------------xx-------------xx-------------xx--------------|
B|--------------xx-------------xx-------------xx--------------|
G|--------------xx-------------xx-77-77-77-77-xx--------------|
D|--99-99-99-99-xx-55-55-55-55-xx-77-77-77-77-xx-77-77-77-77--|
A|--99-99-99-99-xx-55-55-55-55-xx-55-55-55-55-xx-77-77-77-77--|
E|--77-77-77-77-xx-33-33-33-33-xx-------------xx-55-55-55-55--|

"Go Back To The Place We Knew.." 2:08-2:28
Both Guitars:
e|---------------------------------------|
B|---------------------------------------|
G|-----------77777777--------------------|
D|--99999999-77777777-77777777-55555555--|  x2
A|--99999999-55555555-77777777-55555555--|
E|--77777777----------55555555-33333333--|

"Let This Be A Lesson To Us" - 2:29-2:34
Guitar 1 Only:
e|--------------|
B|--------------|
G|--7---11--14--|
D|--7-----------|
A|--5-----------|
E|--------------|

Chorus: 2:35-2:54
Both Guitars:
e|-------------------------------------|
B|-------------------------------------|
G|--77777777---------------------------|
D|--77777777555555559999999955555555---|  x2
A|--55555555555555559999999955555555---|
E|----------333333337777777733333333---|

"Round In Circles" 2:55-3:20
Guitar 1:
e|--------------|
B|--------------|
G|--7--6--9--7--|
D|--------------|  x4
A|--------------|
E|--------------|

Guitar 2:
e|--------------|
B|--------------|
G|--7-----------|
D|--7-----------| x4
A|--5-Let-Ring--|
E|--------------|

The End! Cheers! (:
Suggest correction
What's this?
You can suggest a correction to this tab. Community and Mods will review your correction and vote to approve or reject it.
comments
We did not receive enough feedback on this tab! Please rate:
print report bad tab
1 2 3 4 5
guest
You may want to rate the tab now too:
select rating
Please do not post tabs as comments. Select "correction" instead!