Oops, an error
Loading. Please wait.

Coffee Shop Soundrack Acoustic Tab

21,766 views 3 this week
1 commentread comment
1 2 3 4 5
2 more votes to show rating
add to favorites
launch autoscroll
font size
0
reset
how to read this tab
guitar tuner
Autoscroll
slow
fast
+/-
esc
set tempo
stop
Help us to improve Ultimate-Guitar.com Take our survey!
×
this is the buzznet version. any other version wouldnt b to far off
tuning DAGDAD

intro play whole thing twice
D|-0-0-0-0--0-00-00-0-000-0-0-0-0--0-00-00-0-000-00-0-00-00-0000-|
A|-0-0-0-0--0-00-00-0-000-0-0-0-0--0-00-00-0-000-00-0-00-00-0000-|
G|-6-6-6-6--2-22-22-2-222-6-6-6-6--2-22-22-2-222-44-4-44-44-4444-|
D|-6-6-6-6--2-22-22-2-222-6-6-6-6--2-22-22-2-222-44-4-44-44-4444-|
A|-4-4-4-4--0-00-00-0-000-4-4-4-4--0-00-00-0-000-44-4-44-44-4444-|
D|-----------------------------------------------22-2-22-22-2222-|

D|-00-0-00-00-0000-|
A|-00-0-00-00-0000-|
G|-44-4-44-44-4444-|
D|-44-4-44-44-4444-|
A|-22-2-22-22-2222-|
D|-----------------|

verse(play twice. 2nd time is a dif strum pattern its not hard)
D|-0~---0000-0~---00-0~--0~--0~-|
A|-0~---0000-0~---00-0~--0~--0~-|
G|-2~---2222-4~---44-6~--2~--4~-|
D|-2~---2222-4~---44-6~--2~--4~-|
A|-0~---0000-2~---22-4~--0~--4~-|
D|---------------------------2~-|

chorus play twice
D|-0-00-00-0000-0-00-00-0000-00-xx-00-xx-0~--|
A|-0-00-00-0000-0-00-00-0000-00-xx-00-xx-0~--|
G|-4-44-44-4444-2-22-22-2222-66-xx-44-xx-2~--|
D|-4-44-44-4444-2-22-22-2222-66-xx-44-xx-2~--|
A|-4-44-44-4444-0-00-00-0000-44-xx-22-xx-0~--|
D|-2-22-22-2222-----------------xx----xx-----|

verse 2 play verse 1 once then the second time around play
D|-0-000-0-000-0-000-0~--0~---|
A|-0-000-0-000-0-000-0~--0~---|
G|-4-444-6-666-8-888-6~--4~---|
D|-4-444-6-666-8-888-6~--4~---|
A|-2-222-4-444-6-666-4~--2~---|
D|----------------------------|

same chorus

bridge play twice
D|-0-0-0-0-0-0-0-0-0-0-0-0-0-0-0-0--|
A|-0-0-0-0-0-0-0-0-0-0-0-0-0-0-0-0--|
G|-6-6-6-6-6-6-6-6-x-x-x-x-2-2-2-2--|
D|-6-6-6-6-6-6-6-6-2-2-2-2-2-2-2-2--|
A|-4-4-4-4-3-3-3-3-2-2-2-2-0-0-0-0--|
D|----------------------------------|

D|-0-0-0-0-0-0-0-0-0~-|
A|-0-0-0-0-0-0-0-0-0~-|
G|-6-6-6-6-6-6-6-6-2~-|
D|-6-6-6-6-6-6-6-6-2~-|
A|-4-4-4-4-3-3-3-3-0~-|
D|--------------------|

next part
D|-0~--0~--0~--0~--0~--0--00-xx-00-xx-0-00-00-0000-|
A|-0~--0~--0~--0~--0~--0--00-xx-00-xx-0-00-00-0000-|
G|-4~--2~--4~--2~--4~--2--66-xx-44-xx-2-22-22-2222-|
D|-4~--2~--4~--2~--4~--2--66-xx-44-xx-2-22-22-2222-|
A|-4~--0~--2~--0~--4~--0--44-xx-22-xx-0-00-00-0000-|
D|-2~--------------2~--------xx----xx--------------|

then chorus
Suggest correction
Give kudos to tab author, rate the tab!
1 2 3 4 5
comments
print report bad tab
1 comment total.
0 reply
ray240315 10 Oct 16, 2009 10:08 PM

if you wanna play this in standard, all the

A|-00-0-00-00-0000-|
G|-44-4-44-44-4444-|
D|-44-4-44-44-4444-|
A|-44-4-44-44-4444-|
D|-22-2-22-22-2222-|

you can just play it as a regular E which is

x

guest
You may want to rate the tab now too:
select rating
Wanna post a correction for this tab? Suggest correction