Oops, an error
Loading. Please wait.

Coffee Shop Soundtrack Chords

version 1
version 1

Acoustic

Whole song

Interactive

22,057 views 10 this week
1 commentread comment
1 2 3 4 5
accurate
x 3
add to favorites
launch autoscroll
font size
0
reset
transpose
0
reset
display chords
guitar tuner
Tab Pro tools
  • play this tab
  • loop segment
  • change instrument
  • show fretboard
  • metronome
×
Best way to learn
"Coffee Shop Soundtrack"
Autoscroll
slow
fast
+/-
esc
set tempo
stop
Am
e-----------------|
b-----------------|
g---2-------------|
d---2-------------|
a---0-------------|
E-----------------|

B
e-----------------|
b-----------------|
g---4-------------|
d---4-------------|
a---2-------------|
E-----------------|

C#
e-----------------|
b-----------------|
g---6-------------|
d---6-------------|
a---4-------------|
E-----------------|

C
e-----------------|
b-----------------|
g---5-------------|
d---5-------------|
a---3-------------|
E-----------------|


OR


Amsus
e---0-------------|
b---0-------------|
g---2-------------|
d---2-------------|
a---0-------------|
E-----------------|

B
e---0-------------|
b---0-------------|
g---4-------------|
d---4-------------|
a---2-------------|
E-----------------|

C#
e---0-------------|
b---0-------------|
g---6-------------|
d---6-------------|
a---4-------------|
E-----------------|

C
e---0-------------|
b---0-------------|
g---5-------------|
d---5-------------|
a---3-------------|
E-----------------|

Intro
e-------------------------------------------------------------------------|\           
b-------------------------------------------------------------------------| \         
g-6-6-6-6-6-6--2---2-2-2-2------1-1-1-1-1-1-1-1---4-4-4-4-4-4-4-4---------|  \ X2         
d-6-6-6-6-6-6--2---2-2-2-2--X2--2-2-2-2-2-2-2-2---4-4-4-4-4-4-4-4---------|  /           
a-4-4-4-4-4-4--0---0-0-0-0------2-2-2-2-2-2-2-2---2-2-2-2-2-2-2-2---------| /           
E-------------------------------------------------------------------------|/         
  1 + 2 + 3 +  4---+ 1 2 3      1 2 3 4 1 2 3 4   1 2 3 4 1 2 3 4

Verse 1

(the B you start on is the same on as the end of the intro you  
          just kinda put them together)

Bm                   Am                      Bm                 

   And should i write myself out of the history books                     
           C#                      Bm
and mark a place in time for every chance you took
             C#                  Am                    Bm
Don't get me wrong i know you've got your life in place
                                  C#
I'm bound to take the hint someday 
              Am~            Bm~                    
I'a sure i'll get the picture    stop waiting up

Chorus

Bmx2~       Bm                  Am
And when it all comes down to a sunrise on the eastside 
         C# C#~      Bm Bm~    Am Am~
will you be there to carry     home 
                  Bm           Am
the remains of my wasted youth this wasted time on you
            C# C#~          Bm Bm~        Am Am~                      
has left me shaken and waitin shakin and waitin for somethin more

Verse 2

First part of intro x1 and hold Am

This part kind of builds up from the held note

Am~                   Am
     tonight is alive with the promise of a street fight 
            C#                           Bm                                Am
and there's money on the table says your cheap shots wont be able to break bone
                    C     Bm                  Am                 Am~
I've yet to break a sweat i'll make your past regret it's future 

here's to 

Chorus

Amx2    Bm                  Am
When it all comes down to a sunrise on the eastside 
         C# C#~      Bm Bm~    Am Am~
will you be there to carry     home 
                  Bm           Am
the remains of my wasted youth this wasted time on you 
            C# C#~          Bm Bm~          Am Am~
has left me shakin and waitin shakin and waitin for somethin more 


Bridge

Play Quarter notes here in like 4/4 time its the 
|duh duh duh duh||duh duh duh duh|  part

C#             Cm
make all of my decisions for me 
Bm                   Bbm
I've never taken the fall for the scene 
C#                     Cm
We'll keep a secret if you can keep me guessin 
    Am~
the taste of your lips has me sure to be met like 
C#             Cm               Bm
make all of my decisions for me i've never taken the fall for the scene
C#                      Cm
we can keep a secret if you can keep me guessin 

      Bm
I can keep a secret if you can keep me guessin 
    Am
the flavor of your lips is enough to keep me pressin 
    C#
for more than just a moment of truth 
                          Am
between the lives when we pull ourselves away from the lives we leave back 
      Bm
I can keep a secret if you can keep me guessin 
    C#(pause)                               C#       Bm   
the flavor of your lips is enough to keep me he----re 
Am
keep me here 

Chorus

Bmx3~       Bm                  Am
And when it all comes down to a sunrise on the eastside 
         C# C#~      Bm Bm~    Am Am~
will you be there to carry     home 
                  Bm           Am
the remains of my wasted youth this wasted time on you
            C# C#~          Bm Bm~        Am Am~                     
has left me shaken and waitin shakin and waitin for somethin more

(end on this)

e-----------------|
b-----------------|
g---2-------------|
d---2-------------|
a---0-------------|
E-----------------|



comments
We did not receive enough feedback on this tab! Please rate:
print report bad tab
1 2 3 4 5
1 comment total.
0 reply
noxel wrote on February 2 2009, 11:45 am

This tab is almost good, however your missing the Em variant (not sure of the proper name), which looks like:

e-----------------|
b-----------------|
g---4-------------|
d---2-------------|
a---2-------------|
E-----------------|

It replaces the B (or Bm) sometimes.

I want to post or [tab]
guest
You may want to rate the tab now too:
select rating
Please do not post tabs as comments. Select "correction" instead!