Oops, an error
Loading. Please wait.

Coffee Shop Soundtrack Tab

version 1
version 1

Acoustic

Whole song

Interactive

36,510 views 3 this week
no commentswrite comment
1 2 3 4 5
accurate
x 6
add to favorites
launch autoscroll
font size
0
reset
how to read this tab
guitar tuner
Autoscroll
slow
fast
+/-
esc
set tempo
stop
Help us to improve Ultimate-Guitar.com Take our survey!
×
Contributor
Difficulty
novice
*~southy_11~*

This is my first tab!!! This is a great acoustic version of a great song. Plz rate me :)

Title: Coffee Shop Soundtrack
by All Time Low


Tuning: Standard


Intro (2x)
                                   (on this part there are alot of
                                 accents just listen to the song)
e|--0--0-0-0--0--0-0-0--0-0-0-------0-0-0-0----0-0-0-0---------------------|
B|--0--0-0-0--0--0-0-0--0-0-0-------0-0-0-0----0-0-0-0---------------------|
G|--6--6-6-6--2--2-2-2--2-2-2-------6-6-6-6----4-4-4-4---------------------|
D|--6--6-6-6--2--2-2-2--2-2-2----2x-6-6-6-6----4-4-4-4---------------------|
A|--4--4-4-4--0--0-0-0--0-0-0-------4-4-4-4----2-2-2-2---------------------|
E|--x--x-x-x--x--x-x-x--x-x-x-------x-x-x-x----x-x-x-x---------------------|

Verse 1

e|--0-0-0--0------0-0-0--0-0-0---0-0-0-------------------------------------|
B|--0-0-0--0------0-0-0--0-0-0---0-0-0-------------------------------------|
G|--6-6-6--2------6-6-6--2-2-2---2-2-2-------------------------------------|
D|--6-6-6--2--4x--6-6-6--2-2-2---2-2-2--4x---------------------------------|
A|--4-4-4--0------4-4-4--0-0-0---0-0-0-------------------------------------|
E|--x-x-x--x------x-x-x--x-x-x---x-x-x-------------------------------------|

Chorus (2x)

e|-0-0-0-0--0-0-0-0--0-0-0-0--0-0-0-0----------------------|
B|-0-0-0-0--0-0-0-0--0-0-0-0--0-0-0-0----------------------|
G|-9-9-9-9--6-6-6-6--4-4-4-4--2-2-2-2----------------------|
D|-9-9-9-9--6-6-6-6--4-4-4-4--2-2-2-2----------------------|
A|-7-7-7-7--4-4-4-4--2-2-2-2--0-0-0-0----------------------|
E|-x-x-x-x--x-x-x-x--x-x-x-x--x-x-x-x----------------------|

Verse 2

e|--0-0-0--0-0----0-0-0--0-0-0---0-0-0-------------------------------------|
B|--0-0-0--0-0----0-0-0--0-0-0---0-0-0-------------------------------------|
G|--6-6-6--2-2----6-6-6--2-2-2---2-2-2-------------------------------------|
D|--6-6-6--2-2-4x-6-6-6--2-2-2---2-2-2--4x---------------------------------|
A|--4-4-4--0-0----4-4-4--0-0-0---0-0-0-------------------------------------|
E|--x-x-x--x-x----x-x-x--x-x-x---x-x-x-------------------------------------|


Chorus (2x)

e|-0-0-0-0--0-0-0-0--0-0-0-0--0-0-0-0----------------------|
B|-0-0-0-0--0-0-0-0--0-0-0-0--0-0-0-0----------------------|
G|-9-9-9-9--6-6-6-6--4-4-4-4--2-2-2-2----------------------|
D|-9-9-9-9--6-6-6-6--4-4-4-4--2-2-2-2----------------------|
A|-7-7-7-7--4-4-4-4--2-2-2-2--0-0-0-0----------------------|
E|-x-x-x-x--x-x-x-x--x-x-x-x--x-x-x-x----------------------|


Bridge

                (palm mute the whole first part then on the second time 
                   round strum the last chord out and then on the last 
                     part just strum once you'll figure out the timing by
                    listening and the strumming isn't here) 
e|--0----0----0----0---------------------------------------------|
B|--0----0----0----0---------------------------------------------|
G|--6----4----2----4---------------------------------------------|
D|--6----4----2----4---------------------------------------------|
A|--4----2----0----2---------------------------------------------|
E|--x----x----x----x---------------------------------------------|



Chorus (2x)

e|-0-0-0-0--0-0-0-0--0-0-0-0--0-0-0-0----------------------|
B|-0-0-0-0--0-0-0-0--0-0-0-0--0-0-0-0----------------------|
G|-9-9-9-9--6-6-6-6--4-4-4-4--2-2-2-2----------------------|
D|-9-9-9-9--6-6-6-6--4-4-4-4--2-2-2-2----------------------|
A|-7-7-7-7--4-4-4-4--2-2-2-2--0-0-0-0----------------------|
E|-x-x-x-x--x-x-x-x--x-x-x-x--x-x-x-x----------------------|


                 (*The End*)


LYRICS

Should I write myself out of the history books,
and mark a place in time for every chance you took,
Don't get me wrong I know you've got your life in place -
I've yet to take the hint,
Some day
I'm sure I'll get the picture,
and stop waiting up...

When it all comes down,
to a sunrise on the east side,
will you be there to carry home,
the remains of my wasted youth,
this wasted time on you
has left me shaking in waiting,
shaking in waiting for something more.

Tonight is alive with the promise of a street-fight,
and there's money on the table,
that says your cheap-shots won't be able,
to break bones.
I've yet to break a sweat
I'll make your past regret its future.
Here's to you.

When it all comes down,
to a sunrise on the east side,
will you be there to carry home,
the remains of my wasted youth,
this wasted time on you
has left me shaking in waiting,
for something more.

Make all of my decisions for me,
I've never taken the fall for deceit,
I'll keep a secret if you keep me guessing,
The taste of your lips says we shouldn't have met like...

Make all of my decisions for me,
I've never taken the fall for deceit,
We'll keep a secret if you keep me guessing,
The taste of your lips says we shouldn't have met like this

I can keep a secret if you can keep me guessing,
The flavor of your lips is enough to keep me pressing,
for more than just a moment of truth between the lies told,
to pull ourselves away from the lives we leave back home...
I can keep a secret if you can keep me guessing,
The flavor of your lips is enough to keep me here, keep me here

When it all comes down,
to a sunrise on the east side,
will you be there to carry me home,
the remains of my wasted youth,
this wasted time on you
has left me shaking in waiting,
for something more.

*
This is an amazing song
hope you like it too
plz rate
*
Suggest correction new What's this?
You can suggest a correction to this tab. Community and Mods will review your correction and vote to approve or reject it.
comments
print report bad tab
guest
You may want to rate the tab now too:
select rating
Please do not post tabs as comments. Select "correction" instead!