Oops, an error
Loading. Please wait.

Coffee Shop Soundtrack Bass Tab

version 3
version 3

Whole song

Interactive

7,291 views 6 this week
2 commentsread comments
1 2 3 4 5
excellent!
x 4
add to favorites
launch autoscroll
font size
0
reset
guitar tuner
Tab Pro tools
  • play this tab
  • loop segment
  • change instrument
  • show fretboard
  • metronome
×
Best way to learn
"Coffee Shop Soundtrack"
Autoscroll
slow
fast
+/-
esc
set tempo
stop
Contributor
Difficulty
intermediate
I wonder why this got rejected. It's at least 99 percent accurate. 
Oh well. idgaf, I'm submitting it until it's accepted. Cause it should be.

  Intro (0:00)
G|----------------------------------------------------------|
D|----------------------------------------------------------|
A|----------------------------------------------------------|
E|----------------------------------------------------------|

G|-----------------------------------------------------------------|
D|-----------------------------------------------------------------|
A|-4-4-4-4---4---------------------4-4-4-4---4---------------------|
E|-------------5-----5-5---5---5-7-------------5-----5-5---5---5-7-|

G|---------------------------------------------------------------|
D|---------------------------------------------------------------|
A|---------------------------------2---2---2---2---2---2---2---2-|
E|-0---0---0---0---0---0---0---0---------------------------------|

G|-----------------------------------------------------------------|
D|-----------------------------------------------------------------|
A|-4-4-4-4-------------------------4-4-4-4-------------------------|
E|-------------5-------------------------------5---5-5---5-5---5-7-|

G|---------------------------------------------------------------|
D|---------------------------------------------------------------|
A|---------------------------------2---2---2---2---2---2---2---2-|
E|-0---0---0---0---0---0---0---0---------------------------------|

 Verse 1 (0:26)
G|-----------------------------------------------------------------|
D|-----------------------------------------------------------------|
A|-4-4-4-4-4-4---------------------4-4-4-4-4-4---------------------|
E|-------------5-5-5-5-5-5-5-5-5-5-------------0-0-0-0-0-0-0-0-0-0-|

G|-----------------------------------------------------------------|
D|-----------------------------------------------------2---4-2---2-|
A|-4-4-4-4-4-4---------------------2-2-2-2-2-2-----2-4---4-----4---|
E|-------------5-5-5-5-5-5-5-5-5-5-------------2-4-----------------|

G|-----------------------------------------------------------------|
D|-----------------------------------------------------------------|
A|-4-4-4-4-4-4---------------------4-4-4-4-4-4---------------------|
E|-------------5-5-5-5-5-5-5-5-5-5-------------0-0-0-0-0-0-0-0-0-0-|

G|-----------------------------------------------------------------|
D|-----------------------------------------------------------------|
A|-4-4-4-4-4-4---------------------2-2-2-2-2-2---------------------|
E|-------------5-5-5-5-5-5-5-5-5-5-------------2-2-2-2-2-2-2-4-----|

 Chorus (0:46)
G|-----------------------------------------------------------------|
D|-----------------------------------------------------------------|
A|---------------------------------0-0-0-0-0-0-0-0-0-0-0-0-0-0-0-0-|
E|-0-0-0-0-0-0-0-0-0-0-0-0-0-0-0-0---------------------------------|
                                                                     2x
G|-----------------------------------------------------------------|
D|-----------------------------------------------------------------|
A|-4-4-4-----------2-2-2-----------0-0-0-0-0-0-0-0-0-0-0-0-0-0-0-0-|
E|-----------------------------------------------------------------|
 
 Verse 2 (1:08)
G|-----------------------------------------------------------------|
D|-----------------------------------------------------------------|
A|-4-4-4-4-----7-----7-7-7-7-7-7-7---------------------------------|
E|---------------------------------7-7-7-7-7-7-7-7-7-7-7-7-7-7-7-7-|

G|-----------------------------------------------------------------|
D|-----------------------------------------------------------------|
A|-4-4-4-4-4-4-----------------------------------------------------|
E|-------------5-5-5-5-5-5-5-5-5-5-7-7-7-7-7-7-7-7-7-7-7-7-7-7-7-7-|

G|-----------------------------------------------------------------|
D|-----------------------------------------------------------------|
A|-0-0-0-0-0-0-0-0-2-2-2-2-2-2-2-2-3-3-3-3-3-3-3-3-4-4-4-4-4-4-4-4-|
E|-----------------------------------------------------------------|

G|-----------------------------------------------------------------|
D|-----------------------------------------------------------------|
A|-0-0-0-0-0-0-0-0-0-0-0-0-0-0-0-0-2-2-2-2-2-2-2-2-2-2-2-2-2-------|
E|-----------------------------------------------------------------|

 Chorus (1:29)
G|-----------------------------------------------------------------|
D|-----------------------------------------------------------------|
A|---------------------------------0-0-0-0-0-0-0-0-0-0-0-0-0-0-0-0-|
E|-0-0-0-0-0-0-0-0-0-0-0-0-0-0-0-0---------------------------------|
                                                                     2x
G|-----------------------------------------------------------------|
D|-----------------------------------------------------------------|
A|-4-4-4-----------2-2-2-----------0-0-0-0-0-0-0-0-0-0-0-0-0-0-0-0-|
E|-----------------------------------------------------------------|

 Bridge (1:50) "." under tab staff = staccato
G|-----------------------------------------------------------------|
D|-----------------------------------------------------------------|
A|-4---4---4---4---3---3---3---3---7-7-7---7---7---6---6---6---6---|
E|-----------------------------------------------------------------|
   .   .   .   .   .   .   .   .           .   .   .   .   .   .  
G|-----------------------------------------------------------------|
D|-----------------------------------------------------------------|
A|-4---4---4---4---3---3---3---3---0---0---0---0---0---0---0---0---|
E|-----------------------------------------------------------------|
   .   .   .   .   .   .   .   .   .   .   .   .   .   .   .   . 
G|-----------------------------------------------------------------|
D|-----------------------------------------------------------------|
A|-4---4---4---4---3---3---3---3---7---7---7---7---6---6---6---6---|
E|-----------------------------------------------------------------|
   .   .   .   .   .   .   .   .                   .   .   .   . 
G|-----------------------------------------------------------------|
D|-----------------------------------------------------------------|
A|-4-4-4-4-4-4-4-4-3-3-3-3-3-3-3-3-0-0-0-0-0-0-0-0-0-0-0-0-0-0-0-0-|
E|-----------------------------------------------------------------|
   I can keep a secret if you can keep me guessin'...
G|-----------------------------------------------------------------|
D|-----------------------------------------------------------------|
A|-7-7-------------------------------------------------------------|
E|-----------------------------------------------------------------|
   For more than just a moment of truth between lies told to...
G|-----------------------------------------------------------------|
D|-----------------------------------------------------------------|
A|-----------------------------------------------------------------|
E|-----------------------------------------------------------------|
           I can keep a secret if you can keep me guessin'...
G|---------------------------------------|
D|---------------------------------------|
A|---------------------------------------|
E|-5-s-s-s-12-12-------------------------|
  Flavor of your lips is enough to keep me here
G|-----------------------------------------------------------------|
D|-----------------------------------------------------------------|
A|-0-0-----------------------------4-4-4-----------2-2-2-----------|
E|-----------------------------------------------------------------|

G|-----------------------------------------|
D|-----------------------------------------|
A|-0-0-0-0-0-0-0-0s12-12-12-12-12-12-12-12-|
E|-----------------------------------------|

 Outro Chorus (2:31)
G|-----------------------------------------------------------------|
D|-----------------------------------------------------------------|
A|---------------------------------0-0-0-0-0-0-0-0-0-0-0-0-0-0-0-0-|
E|-----0-0-0-0-0-0-0-0-0-0-0-0-0-0---------------------------------|
                                                                    
G|-----------------------------------------------------------------|
D|-----------------------------------------------------------------|
A|-4-4-4-4-4-4-4-4-2-2-2-2-2-2-2-2-0-0-0-0-0-0-0-0-0-0-0-0-0-0-0-0-|
E|-----------------------------------------------------------------|
                     Half-time feel                 
G|-----------------------------------------------------------------|
D|-----------------------------------------------------------------|
A|---------------------------------0-0-0-0-0-0-0-0-0-0-0-0-0-0-0-0-|
E|-0-0-0-0-0-0-0-0-0-0-0-0-0-0-0-0---------------------------------|
                                                                     
G|-----------------------------------------------------------------|
D|-----------------------------------------------------------------|
A|-4-4-4-----------2-2-2---2----4----2----0------------------------|
E|-----------------------------------------------------------------|
comments
print report bad tab
2 comments total.
0 reply
KaitoNyappy wrote on October 13 2010, 02:35 pm

F*ck yeah, this is great, awesome tab, bro!

0 reply
Phloprox wrote on April 9 2011, 11:21 am

Thank you :D

I want to post or [tab]
guest
You may want to rate the tab now too:
select rating
Please do not post tabs as comments. Select "correction" instead!