Oops, an error
Loading. Please wait.

Coffee Shop Soundtrack Tab

version 4
version 4

Whole song

Interactive

18,232 views 12 this week
2 commentsread comments
1 2 3 4 5
accurate
x 7
add to favorites
launch autoscroll
font size
0
reset
how to read this tab
guitar tuner
Autoscroll
slow
fast
+/-
esc
set tempo
stop
Help us to improve Ultimate-Guitar.com Take our survey!
×
Author
-------------------------------------------------------------------------------
                             Coffeeshop Sound Track - All Time Low
-------------------------------------------------------------------------------
Tabbed by: Lucas
Email: itouchny@yahoo.com

Strumming isn't approximate neither is the number of times you repeat each section
your going to have to figure it out on your own.

ALL RAPPERS & PRODUCERS - I MAKE BEATS, $20.00 LEASES CHECK ME OUT AT
HTTP://WWW.BROWNSVILLEPRODUCTIONS.COM

PM = .

Tuning: Drop D

Intro:
Guitar 1
e|------------------------------5*-------------------------------------------|
B|------------------------------5*-------------------------------------------|
G|6---6---6---6---------44444-6-5*-6---------44444---------------------------|
D|6-7-6-7-6-7-6-7-22222-44444-6----6-7-22222-44444---------------------------|
A|4-7-4-7-4-7-4-7-22222-22222-4----4-7-22222-22222---------------------------|
D|--7---7---7---7-22222--------------7-22222---------------------------------|
  . . . .
Guitar 2
e|------5*--------------------------7-----7-------------------------7-----7--|
B|------5*----------------5-4h5-4h5--5-4h5-----------------5-4h5-4h5-5-4h5---|
G|------5*-13-9-13-9----44-4----------------13-9-13-16---44-4----------------|
D|--------------------66-------------------------------66--------------------|
A|---------11-7-11-7------------------------11-7-11--14----------------------|
D|---------------------------------------------------------------------------|

Verse:
Guitar 2
e|---------------------------------------------------------------------------|
B|---------------------------------------------------------------------------|
G|9/13/16-9-9/13/16-9---11-99-999-999-6-9-8-11-11-11-8-8-8-6-9-8-999-999-9-16|
D|---------------------------------------------------------------------------|
A|7/11/14-7-7/11/14-7\6-9--77-777-777-4-7-6-9--9--9--6-6-6-4-7-6-777-777-7-14|
D|---------------------------------------------------------------------------|

Chorus:
Guitar 1
e|---------------------------------------------------------------------------|
B|---------------------------------------------------------------------------|
G|------22222-666-xxx-444-xxx-222--------------------------------------------|
D|22222-22222-666-xxx-444-xxx-222--------------------------------------------|
A|22222-00000-444-xxx-222-xxx-000--------------------------------------------|
D|22222----------------------------------------------------------------------|
Guitar 2:
e|---------------------------------------------------------------------------|
B|----------------12-12-12-12-12~------------------12-12-12-12-12------------|
G|11-13-9-11-13-9---9--9--9--9----16-14-13-11-13-9---9--9--9--9--------------|
D|---------------------------------------------------------------------------|
A|9--11-7-9--11-7-----------------14-12-11-9--11-7---------------------------|
D|---------------------------------------------------------------------------|

Interlude:
Guitar 1
e|---------------------------------------------------------------------------|
B|---------------------------------------------------------------------------|
G|6666-----------------------------------------------------------------------|
D|6666-2~--------------------------------------------------------------------|
A|4444-2~--------------------------------------------------------------------|
D|-----2~--------------------------------------------------------------------|
Guitar 2
e|---------------------------------------------------------------------------|
B|---------------------------------------------------------------------------|
G|13131313-9~----------------------------------------------------------------|
D|---------------------------------------------------------------------------|
A|11111111-7~----------------------------------------------------------------|
D|---------------------------------------------------------------------------|

Verse 2:
Guitar 1
e|---------------------------------------------------------------------------|
B|---------------------------------------------------------------------------|
G|XX-22222-44444-55555-66666-22222222-44444444-------------------------------|
D|XX-22222-44444-55555-66666-22222222-44444444-------------------------------|
A|XX-00000-22222-33333-44444-00000000-22222222-------------------------------|
D|---------------------------------------------------------------------------|

e|---------------------------------------------------------------------------|
B|---------------------------------------------------------------------------|
G|--9----8------8-------9-----7----7---7---7---9-8---------------------------|
D|77-7-99-9-1010-10-1111-11-99--999-999-999-999------------------------------|
A|---------------------------------------------------------------------------|
D|---------------------------------------------------------------------------|

Chorus:
Guitar 1
e|---------------------------------------------------------------------------|
B|---------------------------------------------------------------------------|
G|------22222-666-xxx-444-xxx-222--------------------------------------------|
D|22222-22222-666-xxx-444-xxx-222--------------------------------------------|
A|22222-00000-444-xxx-222-xxx-000--------------------------------------------|
D|22222----------------------------------------------------------------------|
Guitar 2
e|---------------------------------------------------------------------------|
B|----------------12-12-12-12-12~------------------12-12-12-12-12------------|
G|11-13-9-11-13-9---9--9--9--9----16-14-13-11-13-9---9--9--9--9--------------|
D|---------------------------------------------------------------------------|
A|9--11-7-9--11-7-----------------14-12-11-9--11-7---------------------------|
D|---------------------------------------------------------------------------|

Bridge:
Guitar 1
e|---------------------------------------------------------------------------|
B|---------------------------------------------------------------------------|
G|6666-6666-4444-2222--------------------------------------------------------|
D|6666-6666-4444-2222--------------------------------------------------------|
A|4444-3333-2222-0000--------------------------------------------------------|
D|---------------------------------------------------------------------------|
Guitar 2
e|---------------------------------------------------------------------------|
B|---------------------------------------------------------------------------|
G|9-8-11-13-9-8-11-9-8-11-13-9-8-22222222------------------------------------|
D|-------------------------------22222222------------------------------------|
A|7-6-9--11-7-6-9--7-6-9--11-7-6-00000000------------------------------------|
D|---------------------------------------------------------------------------|
                                 .....
Chorus:
Guitar 1
e|---------------------------------------------------------------------------|
B|---------------------------------------------------------------------------|
G|------22222-6666-4444-2222--------22222-666 xxx-444-xxx-222----------------|
D|22222-22222-6666-4444-2222-222222-22222-666-xxx-444-xxx-222----------------|
A|22222-00000-4444-2222-0000-222222-00000-444-xxx-222-xxx-000----------------|
D|22222----------------------222222------------------------------------------|
  ..... ..... .... .... . .  ...... .....
Guitar 2
e|---------------------------------------------------------------------------|
B|----------------------------------------12-12-12-12-12~--------------------|
G|----------------------------------22~-----9--9--9--9-----------------------|
D|----------------------------------22~--------------------------------------|
A|----------------------------------00~--------------------------------------|
D|---------------------------------------------------------------------------|

Chorus:
Guitar 1
e|---------------------------------------------------------------------------|
B|---------------------------------------------------------------------------|
G|------22222-666-444-222-------2222-666 xxx-444-444-2~----------------------|
D|22222-22222-666-444-222-22222-2222-666-xxx-444-444-2~----------------------|
A|22222-00000-444-222-000-22222-0000-444-xxx-222-222-0~----------------------|
D|22222-------------------22222----------------------------------------------|
                                                 ...
Guitar 2:
e|---------------------------------------------------------------------------|
B|---------------------------------------------------------------------------|
G|14-13-16-9-8-14-13-16-14-13-16-9-8-11-8-6\4--------------------------------|
D|---------------------------------------------------------------------------|
A|12-11-14-7-6-12-11-14-12-11-14-7-6-9--6-4\2--------------------------------|
D|---------------------------------------------------------------------------|

| /  slide up
| \  slide down
| h  hammer-on
| p  pull-off
| ~  vibrato
| +  harmonic
| x  Mute note
===============================================================================
Suggest correction
comments
print report bad tab
2 comments total.
+2 reply
Marshall Lead12 30 wrote on July 10 2009, 01:37 am

Thank you so much. You did the lead part, 5 stars for you!!!

0 reply
Ample 157 wrote on July 10 2009, 01:52 am

Thanks dude, yeah I had a little help.

guest
You may want to rate the tab now too:
select rating
Wanna post a correction for this tab? Suggest correction