Oops, an error
Loading. Please wait.

Coffee Shop Soundtrack Tab

version 5
version 5

Whole song

Interactive

3,778 views 3 this week
no commentswrite comment
1 2 3 4 5
2 more votes to show rating
add to favorites
launch autoscroll
font size
0
reset
how to read this tab
guitar tuner
Autoscroll
slow
fast
+/-
esc
set tempo
stop
Help us to improve Ultimate-Guitar.com Take our survey!
×
Author
Difficulty
novice
-----------------------------------------------------------------------------
                        Coffee Shop Soundtrack - All Time Low
-----------------------------------------------------------------------------

Should be just about everything in the song!


Tuning: Standard
_____________________________________________________________________________

Rhythm Guitar (Alex)

Intro:
e|-----------------------------------------------|
B|---------------------------------------5+------|
G|-666666-2222222222--666666-2222222222--5+------|
D|-666666-2222222222--666666-2222222222--5+------|
A|-444444-0000000000--444444-0000000000----------|
E|-----------------------------------------------|
pm...... ..........  ...... ..........

e|------------------------------------------------------|
B|------------------------------------------------------|
G|-666666-2222222222--666666-2222222222--1-------4------|
D|-666666-2222222222--666666-2222222222--2-(X8)--4-(X8)-|
A|-444444-0000000000--444444-0000000000--2-------2------|
E|---------------------------------------0--------------|

e|----------------------------------------------|
B|--------5+------------------------------------|
G|-666666-5+--666666-2222222222--1-------4------|
D|-666666-5+--666666-2222222222--2-(X8)--4-(X8)-|
A|-444444-----444444-0000000000--2-------2------|
E|-------------------------------0--------------|

Verse 1:
e|------------------------------------------------|
B|------------------------------------------------|
G|-11\9--9--9-9---11/13/9--16---------------------|
D|-x--x--x--x-x---x--x--x--x----------------------|
A|-9-\7--7--6/7---9-/11/7--14---------------------|
E|------------------------------------------------|

e|-----------------------------------------------------|
B|-----------------------------------------------------|
G|-11-13-9--11-11/13/11-9---11-13-9--16161616-11111111-|
D|-x--x--x--x--x--x--x--x---x--x--x--x-x-x-x--x-x-x-x--|
A|-9--11-7--9--9-/11/9--7---9--11-7--14141414-9-9-9-9--|
E|-----------------------------------------------------|

e|-------------------------------------------------------------|
B|-------------------------------------------------------------|
G|-11-13-9--11-11/13/11-9--1111111111111111-161616161616161616-|
D|-x--x--x--x--x--x--x--x--x-x-x-x-x-x-x-x--x-x-x-x-x-x-x-x-x--|
A|-9--11-7--9--9-/11/9--7--9-9-9-9-9-9-9-9--141414141414141414-|
E|-------------------------------------------------------------|

Chorus:
e|------------------------------------------------|
B|------------------------------------------------|
G|-1-------2-------66-XXX-44-XXX-2----------------|
D|-2-(X16)-2-(X16)-66-XXX-44-XXX-2-(X16)----------|
A|-2-------0-------44-XXX-22-XXX-0----------------|
E|-0----------------------------------------------|  X2

Break:
e|--------------|
B|--------------|
G|-666666--1~---|
D|-666666--2~---|
A|-444444--2~---|
E|---------0~---|

Verse 2:

Pause

e|------------------------------------------------|
B|------------------------------------------------|
G|-2222-4444-5555-6666--22222222-44444------------|
D|-2222-4444-5555-6666--22222222-44444------------|
A|-0000-2222-3333-4444--00000000-22222------------|
E|------------------------------------------------|


*Chorus*


Bridge:

Part 1:
e|------------------------------------------|
B|------------------------------------------|
G|6666-6666-1111-2222--6666-6666-22222222---|
D|6666-6666-2222-2222--6666-6666-22222222---|
A|4444-3333-2222-0000--4444-3333-00000000---|
E|----------0000----------------------------|

e|------------------------------------------|
B|------------------------------------------|
G|6666-6666-1111-2222--6666-6666-22222222-1-|
D|6666-6666-2222-2222--6666-6666-22222222-2-|
A|4444-3333-2222-0000--4444-3333-00000000-2-|
E|----------0000--------------------------0-|
pm                               ........

Part 2:

Pause

e|------------------------------|
B|------------------------------|
G|-1------2~----666-444-2-------|
D|-2------2~----666-444-2-(X16)-|
A|-2------0~----444-222-0-------|
E|-0----------------------------|

Final Chorus:
e|------------------------------------------------|
B|------------------------------------------------|
G|-1-------2-------6------4------2----------------|
D|-2-(X16)-2-(X16)-6-(X8)-4-(X8)-2-(X16)----------|
A|-2-------0-------4------2------0----------------|
E|-0----------------------------------------------|

e|------------------------------------------------|
B|------------------------------------------------|
G|-1-------2-------66-XXX-44-XXX-2~---------------|
D|-2-(X16)-2-(X16)-66-XXX-44-XXX-2~---------------|
A|-2-------0-------44-XXX-22-XXX-0~---------------|
E|-0----------------------------------------------|

_____________________________________________________________________________

Lead Guitar (Jack)

Intro:
e|-------------------------------------------------7------------------------|
B|-----------------------------------55----4h5-4h5---5-4h5------------------|
G|-131313-99999--131313-99999-----44----44----------------------------------|
D|-x-x-x--xxxxx--x-x-x--xxxxx--66-------------------------------------------|
A|-111111-77777--111111-77777-----------------------------------------------|
E|--------------------------------------------------------------------------|

e|---------------------------------------------------7----------------------|
B|-------------------------------------55----4h5-4h5---5-4h5----------------|
G|-131313-9~--131313-1616161616-----44----44--------------------------------|
D|-x-x-x--x~--x-x-x--x-x-x-x-x---66-----------------------------------------|
A|-111111-7~--111111-1414141414---------------------------------------------|
E|--------------------------------------------------------------------------|

Verse 1:
e|--------------------------------------------------------------------------|
B|--------------------------------------------------------------------------|
G|-9/13/16--9--9/13/16--9-9---11-9-9-999-999---6-9-8-111111-888-------------|
D|-x-x--x---x--x-x--x---x-x---x--x-x-xxx-xxx---x-x-x-x-x-x--xxx-------------|
A|-7/11/14--7--7/11/14--7\6---9--7-7-777-777---4-7-6-9-9-9--666-------------|
E|--------------------------------------------------------------------------|

e|--------------------------------------------------------------------------|
B|--------------------------------------------------------------------------|
G|-6-9-8-999-999---9------11------------------------------------------------|
D|-x-x-x-xxx-xxx---x-(X8)-x-(X8)--------------------------------------------|
A|-4-7-6-777-777---7------9-------------------------------------------------|
E|--------------------------------------------------------------------------|

Chorus:
e|--------------------------------------------------------------------------|
B|------------------------------------------12-12-12-12-12~-----------------|
G|-11-11/13-13-9-------11-11/13-13-9----------9--9--9--9--------------------|
D|-x--x--x--x--x-(X8)--x--x--x--x--x-(X8)-----------------------------------|
A|-9--9-/11-11-7-------9--9-/11-11-7----------------------------------------|
E|--------------------------------------------------------------------------|

e|--------------------------------------------------------------------------|
B|------------------------------------------12-12-12-12-12~-----------------|
G|-16-16/14-14-13-------11-11/13-13-9---------9--9--9--9--------------------|
D|-x--x--x--x--x-(X8)---x--x--x--x--x-(X8)----------------------------------|
A|-14-14/12-12-11-------9--9-/11-11-7---------------------------------------|
E|--------------------------------------------------------------------------|

Break:
e|--------------------|
B|--------------------|
G|-131313131313--1~---|
D|-x-x-x-x-x-x---2~---|
A|-111111111111--2~---|
E|---------------0~---|

Verse 2:

Pause

e|--------------------------------------------------------------------------|
B|--------------------------------------------------------------------------|
G|-----9--------8----------8-----------9----------9---9--9--------9---8~----|
D|-7-7---7--9-9---9--10-10---10--11-11---11---7-7---7--7---7--9-9---9-------|
A|--------------------------------------------------------------------------|
E|--------------------------------------------------------------------------|


*Chorus*

Bridge

Part 1
e|--------------------------------------------------------------------------|
B|--------------------------------------------------------------------------|
G|-9999-8888-11111111-13131313--9999-8888-1111111111111111------------------|
D|-xxxx-xxxx-x-x-x-x--x-x-x-x---xxxx-xxxx-x-x-x-x-x-x-x-x-------------------|
A|-7777-6666-9-9-9-9--11111111--7777-6666-9-9-9-9-9-9-9-9-------------------|
E|--------------------------------------------------------------------------|

e|--------------------------------------------------------------------------|
B|--------------------------------------------------------------------------|
G|-9999-8888-11111111-13131313--9999-8888-----------------------------------|
D|-xxxx-xxxx-x-x-x-x--x-x-x-x---xxxx-xxxx-----------------------------------|
A|-7777-6666-9-9-9-9--11111111--7777-6666-----------------------------------|
E|--------------------------------------------------------------------------|

Part 2
e|--------------------------------------------------------------------------|
B|---------------------------------------------------------12-12-12-12-12~--|
G|-----------------------------------------------------------9--9--9--9-----|
D|-2-------7-------11------9------7--------2-------7------------------------|
A|-2-(X16)-7-(X16)-11-(X8)-9-(X8)-7-(X16)--2-(X16)-7-(X16)------------------|
E|-0-------5-------9-------7------5--------0-------5------------------------|
pm .       .       .       .      .        .       .

Final Chorus:
e|--------------------------------------------------------------------------|
B|--------------------------------------------------------------------------|
G|-14-----13-----16-----9------8-------14-----13-----16---------------------|
D|-x-(X8)-x-(X8)-x-(X8)-x-(X4)-x-(X4)--x-(X8)-x-(X8)-x-(X16)----------------|
A|-12-----11-----14-----7------6-------12-----11-----14---------------------|
E|--------------------------------------------------------------------------|

e|--------------------------------------------------------------------------|
B|--------------------------------------------------------------------------|
G|-14-----13-----16-----9------8-------1111-xxx-88-xxx-6/4~-----------------|
D|-x-(X8)-x-(X8)-x-(X8)-x-(X4)-x-(X4)--x-x--xxx-xx-xxx-x-x------------------|
A|-12-----11-----14-----7------6-------9-9--XXX-66-XXX-4/2~-----------------|
E|--------------------------------------------------------------------------|
Suggest correction
Give kudos to tab author, rate the tab!
1 2 3 4 5
comments
print report bad tab
guest
You may want to rate the tab now too:
select rating
Wanna post a correction for this tab? Suggest correction