Oops, an error
Loading. Please wait.

Damned If I Do Ya Damned If I Dont Bass Tab

version 1
version 1

Whole song

Interactive

40,074 views 12 this week
4 commentsread comments
1 2 3 4 5
x 16
add to favorites
launch autoscroll
font size
0
reset
guitar tuner
Autoscroll
slow
fast
+/-
esc
set tempo
stop
Help us to improve Ultimate-Guitar.com Take our survey!
×
Author
-------------------------------------------------------------------------------
            DAMNED IF I DO YA (DAMNED IF I DON'T) - All Time Low
-------------------------------------------------------------------------------

Tabbed By : intothe

Tuning: Standard Tuning

From the new album Nothing Personal.
The song is on All Time Lows myspace and iTunes atm.

Intro: 0:00-0:18

G|---------------------------------------------------------------------------|
D|---------------------------------------------------------------------------|
A|----------0-0-0-0-0-2-2-4-4-2-2-2---------0-0-0-0-0-4-4-2-2-2-2-2----------|
E|--0-0-0-0-------------------------0-0-0-0----------------------------------|

G|---------------------------------------------------------------------------|
D|---------------------------------------------------------------------------|
A|----------0-0-0-0-0-2-2-4-4-2-2-2---------0-0-0-0-0-4-4-2-2-2-2-2----------|
E|--0-0-0-0-------------------------0-0-0-0----------------------------------|


Verse1: 0:19-0:48

G|---------------------------------------------------------------------------|
D|---------------------------------------------------------------------------|
A|---------------------------------------------------------------------------|
E|--0-0----------------------------------------------------------------------|
@00:33 bass comes in again
G|---------------------------------------------------------------------------|
D|---------------------------------------------------------------------------|
A|--0-0-0---------2-2-2-2-4-4-4-4-2-0-0-0---------2-2-2-2-4-4-4-4-2----------|
E|--------0-0-0-0-------------------------0-0-0-0----------------------------|

G|---------------------------------------------------------------------------|
D|---------------------------------------------------------------------------|
A|--0-0-0---------2-2-2-2-4-4-4-4-2-5-5-5-5-5-5-5-5-2-2-2-2-2-2-2------------|
E|--------0-0-0-0------------------------------------------------------------|


Chorus1: 0:49-1:03

G|---------------------------------------------------------------------------|
D|---------------------------------------------------------------------------|
A|------------------0-0-0-0-0-0-0-0-4-4-4-4-4-4-4-4-2-2-2-2-2-2-2-2----------|
E|--0-0-0-0-0-0-0-0----------------------------------------------------------|

G|---------------------------------------------------------------------------|
D|---------------------------------------------------------------------------|
A|--4-4-4-4-4-4-4-4-0-0-0-0-0-0-0-0-0-0--------------------------------------|
E|---------------------------------------------------------------------------|


Post chorus1/intro: 1:04-1:11

G|---------------------------------------------------------------------------|
D|---------------------------------------------------------------------------|
A|----------0-0-0-0-0-2-2-4-4-2-2-2---------0-0-0-0-0-4-4-2-2-2-2-2----------|
E|--0-0-0-0-------------------------0-0-0-0----------------------------------|


Verse2: 1:12-1:42

G|---------------------------------------------------------------------------|
D|---------------------------------------------------------------------------|
A|--0-0-0---------2-2-2-2-4-4-4-4-2-0-0-0---------2-2-2-2-4-4-4-4-2----------|
E|--------0-0-0-0-------------------------0-0-0-0----------------------------|

G|---------------------------------------------------------------------------|
D|---------------------------------------------------------------------------|
A|--0-0-0---------2-2-2-2-4-4-4-4-2-5-5-5-5-5-5-5-5-2-2-2-2-2-2-2------------|
E|--------0-0-0-0------------------------------------------------------------|

G|---------------------------------------------------------------------------|
D|---------------------------------------------------------------------------|
A|--0-0-0---------2-2-2-2-4-4-4-4-2-0-0-0---------2-2-2-2-4-4-4-4-2----------|
E|--------0-0-0-0-------------------------0-0-0-0----------------------------|

G|---------------------------------------------------------------------------|
D|---------------------------------------------------------------------------|
A|--0-0-0---------2-2-2-2-4-4-4-4-2-5-5-5-5-5-5-5-5-2-2-2-2-2-2-2------------|
E|--------0-0-0-0------------------------------------------------------------|


Chorus2: 1:43-1:56

G|---------------------------------------------------------------------------|
D|---------------------------------------------------------------------------|
A|------------------0-0-0-0-0-0-0-0-4-4-4-4-4-4-4-4-2-2-2-2-2-2-2-2----------|
E|--0-0-0-0-0-0-0-0----------------------------------------------------------|

G|---------------------------------------------------------------------------|
D|---------------------------------------------------------------------------|
A|--4-4-4-4-4-4-4-4-0-0-0-0-0-0-0-0-0-0--------------------------------------|
E|---------------------------------------------------------------------------|


Bridge: 1:57-2:18

G|---------------------------------------------------------------------------|
D|---------------------------------------------------------------------------|
A|--0-0-0-0-0-0-0-2-2-2-2-4-4-4-4-2-0-0-0-0-0-0-0-0-2-2-2-2-4-4-4-4-2--------|
E|---------------------------------------------------------------------------|

G|---------------------------------------------------------------------------|
D|---------------------------------------------------------------------------|
A|--0-0-0-0-0-0-0-7-7-7-7-6-6-6-6-2-0-0-0-0-0-0-0-0--------------------------|
E|---------------------------------------------------------------------------|


Chorus3: 2:19-2:52

G|---------------------------------------------------------------------------|
D|---------------------------------------------------------------------------|
A|------------------0-0-0-0-0-0-0-0-4-4-4-4-4-4-4-4-2-2-2-2-2-2-2-2----------|
E|--0-0-0-0-0-0-0-0----------------------------------------------------------|

G|---------------------------------------------------------------------------|
D|---------------------------------------------------------------------------|
A|--4-4-4-4-4-4-4-4-0-0-0-0-0-0-0-0-0-0-0-0-0-0-0-0-0-0-2-2-2-2-2-2-2-2------|
E|---------------------------------------------------------------------------|

G|---------------------------------------------------------------------------|
D|---------------------------------------------------------------------------|
A|------------------0-0-0-0-0-0-0-0-4-4-4-4-4-4-4-4-2-2-2-2-2-2-2-2----------|
E|--0-0-0-0-0-0-0-0----------------------------------------------------------|

G|---------------------------------------------------------------------------|
D|---------------------------------------------------------------------------|
A|--4-4-4-4-4-4-4-4-0-0-0-0-0-0-0-0-0-0----------------------0-0-------------|
E|---------------------------------------------------------------------------|


Outro: 2:53-End

G|---------------------------------------------------------------------------|
D|---------------------------------------------------------------------------|
A|----------0-0-0-0-0-2-2-4-4-2-2-2---------0-0-0-0-0-4-4-2-2-2-2-2----------|
E|--0-0-0-0-------------------------0-0-0-0-------------------------0-0------|


| /  slide up
| \  slide down
| h  hammer-on
| p  pull-off
| ~  vibrato
| +  harmonic
| x  Mute note
=====================================================================================
Suggest correction
comments
print report bad tab
4 comments total. Showing first comments.
0 reply
himynameisjack 10 Jun 25, 2009 06:37 AM

apart from a few missing fills, this is a great tab, good job! =]

0 reply
rsallstar13 20 Jul 05, 2009 12:19 PM

great tab man

0 reply
bassmasterdrew 30 Jul 27, 2009 11:10 AM

good tab appart from that it should be in drop D instead of standard, good tab tho =D

guest
You may want to rate the tab now too:
select rating
Wanna post a correction for this tab? Suggest correction