Oops, an error
Loading. Please wait.

Daydream Away Tab

18,670 views 15 this week
1 commentread comment
1 2 3 4 5
accurate
x 6
add to favorites
launch autoscroll
font size
0
reset
how to read this tab
guitar tuner
Tab Pro tools
  • play this tab
  • loop segment
  • change instrument
  • show fretboard
  • metronome
×
Best way to learn
"Daydream Away"
Autoscroll
slow
fast
+/-
esc
set tempo
stop
Contributor
Difficulty
novice
Daydream Away - All Time Low
Standard Tuning

Listen to the track for the strumming pattern.

Intro

Guitar 1
e|------------------------------------------|
B|------------------------------------------|
G|--7--------4------------------7----2------|
D|--7--------4--------5----7----7----2------|
A|--5--------2--------5----7----5----0------|
E|--------------------3----5----------------|

Guitar 2
e|---------------|
B|------66-44-2--|
G|------xx-xx-x--| x2
D|------44-22-0--|
A|---------------|
E|---------------|

e|------------------------|
B|------66-44-6------4-2--|
G|------xx-xx-x------x-x--|
D|------44-22-4------2-0--|
A|------------------------|
E|------------------------|

Verse

Guitar 1
(i wish you could see your face right now...)
e|---------------------------------------------|
B|---------------------------------------------|
G|--7--------4-------2--7--------4----------2--|
D|--7--------4-------2--7--------4----------2--| x2
A|--5--------2-------0--5--------2----------0--|
E|---------------------------------------------|
(and we're sitting on your kitchen floor...)
e|---------------------------------------------|
B|---------------------------------------------|
G|--7--------4-------2-----------2-------------|
D|--7--------4-------2--2--------2-------------|
A|--5--------2-------0--2--------0-------------|
E|----------------------0----------------------|
(It doesn't matter when we get back...)
e|---------------------------------------------|
B|---------------------------------------------|
G|--7--------4-------2--7--------4----------2--|
D|--7--------4-------2--7--------4----------2--| x2
A|--5--------2-------0--5--------2----------0--|
E|---------------------------------------------|
(cause right now could last for ever...)
e|---------------------------------------------|
B|---------------------------------------------|
G|-----------4-------2-----------2-------------|
D|--5--------4-------2--2--------2-------------|
A|--5--------2-------0--2--------0-------------|
E|--3-------------------0----------------------|

Chorus

Guitar 1 x2
e|------------------------------------------|
B|------------------------------------------|
G|--7--------4------------------7----2------|
D|--7--------4--------5----7----7----2------|
A|--5--------2--------5----7----5----0------|
E|--------------------3----5----------------|

Guitar 2 x2
e|---------------|
B|------66-44-2--|
G|------xx-xx-x--| x2
D|------44-22-0--|
A|---------------|
E|---------------|

e|------------------------|
B|------66-44-6------4-2--|
G|------xx-xx-x------x-x--|
D|------44-22-4------2-0--|
A|------------------------|
E|------------------------|

Verse

Guitar 1
(We would go out on the weekend...)
e|---------------------------------------------|
B|---------------------------------------------|
G|--7--------4-------2--7--------4----------2--|
D|--7--------4-------2--7--------4----------2--| x2
A|--5--------2-------0--5--------2----------0--|
E|---------------------------------------------|
(We'd laugh at all the douche bag guys...)
e|---------------------------------------------|
B|---------------------------------------------|
G|--7--------4-------2-----------2-------------|
D|--7--------4-------2--2--------2-------------|
A|--5--------2-------0--2--------0-------------|
E|----------------------0----------------------|
(I would drink a little too much...)
e|---------------------------------------------|
B|---------------------------------------------|
G|--7--------4-------2--7--------4----------2--|
D|--7--------4-------2--7--------4----------2--| x2
A|--5--------2-------0--5--------2----------0--|
E|---------------------------------------------|
(And i would offer you a t-shirt...)
e|---------------------------------------------|
B|---------------------------------------------|
G|-----------4-------2-----------2-------------|
D|--5--------4-------2--2--------2-------------|
A|--5--------2-------0--2--------0-------------|
E|--3-------------------0----------------------|

Guitar 2 - only in seconds half, (I would drink a little too much...)
 
e|-------------------------------|
B|--<12>--<7>--------<12>--------|
G|-------------------------<7>---|
D|-----------------<7>-----------| x3
A|-------------------------------|
E|-------------------------------|

e|-------------------------------|
B|--<12>--<7>--------<12>--<7>---|
G|-------------------------------|
D|-----------------<7>-----------|
A|-------------------------------|
E|-------------------------------|

Chorus

Guitar 1 x2
e|------------------------------------------|
B|------------------------------------------|
G|--7--------4------------------7----2------|
D|--7--------4--------5----7----7----2------|
A|--5--------2--------5----7----5----0------|
E|--------------------3----5----------------|

Guitar 2 x2
e|---------------|
B|------66-44-2--|
G|------xx-xx-x--| x2
D|------44-22-0--|
A|---------------|
E|---------------|

e|------------------------|
B|------66-44-6------4-2--|
G|------xx-xx-x------x-x--|
D|------44-22-4------2-0--|
A|------------------------|
E|------------------------|

Interlude

Guitar 1 x2
e|------------------------------------------|
B|------------------------------------------|
G|--7--------4------------------7----2------|
D|--7--------4--------5----7----7----2------|
A|--5--------2--------5----7----5----0------|
E|--------------------3----5----------------|

Guitar 2 x2
e|------------------------------------|
B|------------------------------------|
G|--11--11---9---9--11--11--12--12----|
D|----12--12--12--12--12--12--12--12--|
A|------------------------------------|
E|------------------------------------|

e|------------------------------------|
B|------------------------------------|
G|--11--11---9---9---7---7---7---7----|
D|----12--12--12--12---7---7---7---7--|
A|------------------------------------|
E|------------------------------------|

Bridge
 
Guitar 1
e|--3--------2--------3--------2--------3--------2--------0--------0----------|
B|--2--------3--------2--------3--------3--------3--------0--------2----------|
G|--3--------4--------3--------4--------0--------4--------0--------2----------|
D|--0--------4--------0--------4--------0--------4--------2--------2----------|
A|-----------2-----------------2--------2--------2--------2--------0----------|
E|--------------------------------------3-----------------0--------0----------|
    D        Bm       D        Bm       G        Bm       Em       A

Guitar 2 (On last chord of bridge)
e|----5------7-------9---12--|
B|---------------------------|
G|--6--6-6/7---7-7/9---9-----|
D|---------------------------|
A|---------------------------|
E|---------------------------|
Chorus

Guitar 1 x2
e|------------------------------------------|
B|------------------------------------------|
G|--7--------4------------------7----2------|
D|--7--------4--------5----7----7----2------|
A|--5--------2--------5----7----5----0------|
E|--------------------3----5----------------|

Guitar 2 x2
e|---------------|
B|------66-44-2--|
G|------xx-xx-x--| x2
D|------44-22-0--|
A|---------------|
E|---------------|

e|------------------------|
B|------66-44-6------4-2--|
G|------xx-xx-x------x-x--|
D|------44-22-4------2-0--|
A|------------------------|
E|------------------------|

Interlude

Guitar 1 x2
e|------------------------------------------|
B|------------------------------------------|
G|--7--------4------------------7----2------|
D|--7--------4--------5----7----7----2------|
A|--5--------2--------5----7----5----0------|
E|--------------------3----5----------------|

Guitar 2 x2
e|------------------------------------|
B|------------------------------------|
G|--11--11---9---9--11--11--12--12----|
D|----12--12--12--12--12--12--12--12--|
A|------------------------------------|
E|------------------------------------|

e|------------------------------------|
B|------------------------------------|
G|--11--11---9---9---7---7---7---7----|
D|----12--12--12--12---7---7---7---7--|
A|------------------------------------|
E|------------------------------------|
comments
print report bad tab
1 comment total.
+1 reply
marcomendoza97 wrote on July 19 2011, 04:04 pm

The second guitar in the intro isn't right

Its this
e|--------------------------|
b|----77--55--3-------------|
g|----77--66--4-------------|
d|--------------------------|
a|--------------------------|
E|--------------------------|

other than that, not bad.

I want to post or [tab]
guest
You may want to rate the tab now too:
select rating
Please do not post tabs as comments. Select "correction" instead!